Deftones - Change, аккорды

Прокрутка
Тональность
Шрифт
100
artist:Deftones
song:change(in the house of flies)
album:white pony
tabbed by:asteroth420
my email is at hydraninja@yahoo.com

drop D tuning

D------------------------------------------|
A------------------------------------------|
F-10-10-10--10-10-10--10-10-10--10-10-10---|
C------------------------------------------|
G-8--8--8---8--8--8---8--8--8---8--8--8----|
C-0--0--0---0--0--0---0--0--0---0--0--0----|

D------------------------------------------|
A------------------------------------------|
F------------------------------------------|
C-5-5-5--8-8-8--7-7-7--8-8-8--8-7-6-5------|
G-5-5-5--5-5-5--5-5-5--5-5-5--5-5-5-5------|
C-5-5-5--5-5-5--5-5-5--5-5-5--5-5-5-5------|
 
 

Видео