Deftones - Change, аккорды

Прокрутка
Тональность
Шрифт
100
Drop D Tuning (Transposed To C)

Verse:
|---------------------------------------------|
|---------------------------------------------|
|----------10------10------10----10-10--10-10-|
|-----------x-------x-------x-----x--x---x-x--|
|-----------8-------8-------8-----8--8---8-8--|
|-0--0-0----0----0--0----0--0-----0--0---0-0--|

|----------------------|
|----------------------|
|----------------------|
|-5----8--7--8--8p7--7-|
|-5----5--5--5--5----5-|
|-5----5--5--5--5----5-|

Chorus Part 1:
|-------------------------------------------------------------|
|-------------------------------------------------------------|
|--------------------------------------------10--------10-----|
|-0--0-0-0-0--0--0-0-0-0--0--0-0--8--8-8-8-8-10--8-8-8-10-8-8-|
|-0--0-0-0-0--0--0-0-0-0--0--0-0--8--8-8-8-8--8--8-8-8--8-8-8-|
|-0--0-0-0-0--0--0-0-0-0--0--0-0--8--8-8-8-8--8--8-8-8--8-8-8-|

Chorus Part 2:
|------------------------------------------------------------|
|------------------------------------------------------------|
|------------------------------------------------------------|
|-3--3-3-3-3--3--3-3-3--3--3-3--0--0-0-0-0--0--0-0-0--0--0-0-|
|-3--3-3-3-3--3--3-3-3--3--3-3--0--0-0-0-0--0--0-0-0--0--0-0-|
|-3--3-3-3-3--3--3-3-3--3--3-3--0--0-0-0-0--0--0-0-0--0--0-0-|

Quiet Verse:
|------------------------------------|
|------------------------------------|
|------------------------------------|
|-0--------5--------8----7----5----5-|
|-0--------5--------5----5----5----8-|
|-0--------5--------5----5----5----5-|
 
 

Видео