Deftones - Gods Hands Quirk, аккорды

Прокрутка
Тональность
Шрифт
100
God's Hand/Quirk 
Deftones 
???? 
Tab by James Copley (jcopley18@hotmail.com) 
Standard tuning 

main riff 
G|----------------- 
D|----------------- 
A|---2-3---3-2----- 
E|-0-----0-----5-4- 

When it changes 
G|--------------------------------- 
D|--------------------------------- 
A|-2/3-3/2-2/3-3/5----------------- 
E|-----------------4/5-5/4-4/2-2/1- 

G|---------- 
D|---------- 
A|-2/33----- 
E|------5-4- 


Kewl bass riff 
G|------------------- 
D|-----2---0-------3- 
A|-------------3/4--- 
E|-0-0---0---0------- 


outro 
G|--------------- 
D|--------------- 
A|-1/22-2-55-6--- 
E|-------------5- 

G|----------------- 
D|----------------- 
A|-1/22-2-55-6----- 
E|-------------5-2- 

 
 

Видео