Deftones - Mascara, аккорды

Прокрутка
Тональность
Шрифт
100
TABBED BY: ALTON CHAVEZ
D-A-D-G-B-E

(0:00,-0:27,-0:52,-1:42)
E[------------------------------]
B[------------------------------] FIRST
G[------------------------------] THREE TIMES
D[-----------0------------------]
A[-------------0----------------]
D[--8/7----4-----4--------------]
(0:21,-1:11,-2:01)
E[------------------------------]
B[------------------------------]
G[------------------------------] FOURTH TIME
D[-----------0------5-----------]
A[-------------0----------------]
D[--8/7----4-----4--------------]
(1:17,-2:07)
E[------------------------------]
B[------------------------------]
G[------------------------------] FOUR TIMES
D[-88888888-777-5-77-55---------]
A[-88888888-777-5-77-55---------]
D[-88888888-777-5-77-55---------]
(2:54)
E[------------------------------]
B[------------------------------]
G[-4-----1----------------------]
D[-4-----1----------------------]
A[-4-----1----------------------]
D[-4-----2----------------------]
(3:00)
E[------------------------------]
B[------------------------------]
G[-1----------------------------] TIMES
D[---1--------------------------]
A[-----1------------------------]
D[-------2----------------------]
 
 

Видео