Deftones - My Own Summer, аккорды

Прокрутка
Тональность
Шрифт
100
T1: Aaron Irons, bananaCo89@hotmail.com, Deftones, My Own Summer (shove
 it), ?/?/98 

 S1: This tab is totally correct and i dont think a correct version has
 ever been posted on this site...so here it is., My Own Summer (shove it)
 | 
 Deftones | 
 words and music by Deftones | 

 transcribed by Aaron Irons 
 from the Axe tablature archive 
 http://members.xoom.com/theAxe/ Gtr1 out 
 *get feedback during this part while bass and drums play 

 3rd Chorus 
 ---------- 


 and look up the sky 
 but my eyes burn cloud come Shove it shove it shove it (the sun) 
 shove it shove it shove it (the sun) 
 Shove it shove it shove it (the sun) 
 shove it aside 

 *Gtrs. 1 and 2 
 ----------------------||-------------------------------------------------||

 ----------------------||*-----------------------------------------------*||

 ----------------------||-------------------------------------------------||

 ----------------------||---0--7--8--0--8--5--0--5--0--5/7--0--8--4--4----||

 ----------------------||*--0--7--8--0--8--5--0--5--0--5/7--0--8--4--4---*||

 ----------------------||---0--7--8--0--8--5--0--5--0--5/7--0--8--4--4----||


 2nd Bridge 
 ---------- 

 I think god is mov_____ing 
 it's tongue 
 There's no crowd in the 
 street and no sun 
 ||-------------------------------------------------------------------|| 
 ||*-----------------------------------------------------------------*|| 
 ||--9-9-9-9-9-9-9-9-9-9-9-9-9-9-9-9-9-9-9-9-9-9-9-9-9-9-9-9-9-9-9-9--|| 
 ||--8-8-8-8-8-8-8-8-8-8-8-8-8-8-8-8-8-8-8-8-8-8-8-8-8-8-8-8-8-8-8-8--|| 
 ||*-8-8-8-8-8-8-8-8-8-8-8-8-8-8-8-8-8-8-8-8-8-8-8-8-8-8-8-8-8-8-8-8-*|| 
 ||--8-8-8-8-8-8-8-8-8-8-8-8-8-8-8-8-8-8-8-8-8-8-8-8-8-8-8-8-8-8-8-8--|| 

 (2nd time)in my 
 (3rd time) own 

 _________________________ ___________________________ 
 |1. | |2. | 
 -|-------------------------||-----------------------------|| 
 -|------------------------*||*-----------------------(0)-*|| 
 -|-------------------------||------------------------(0)--|| 
 -|-5-5-5-8-0--5-5-5-8-0-0--||--5-5-5-8-0--5-5-5-8-8-0-0---|| 
 -|-5-5-5-8-0--5-5-5-8-0-0-*||*-5-5-5-8-0--5-5-5-8-8-0-0--*|| 
 -|-5-5-5-8-0--5-5-5-8-0-0--||--5-5-5-8-0--5-5-5-8-8-0-0---|| 
 . after this go back . *play 3 times 
 . and do it again but. 
 . use the 2nd measure. 
 . on the 2nd time. . 
 .--------------------. 


 4th Chorus 
 ---------- 
 summer come shove it shove it shove it (the 
 sun) shove it shove it shove it (the 

 |-------------------------|--------|------||----------------------------------||

 |---------------------(0)-|--------|------||*--------------------------------*||

 |---------------------(0)-|--------|------||----------------------------------||

 |-5-5-5-8-0--5-5-5-8-0-0--|--------|------||--0-7-8-0-8-5-0-5-0-5/7-0-0-4--4--||

 |-5-5-5-8-0--5-5-5-8-0-0--|--------|------||*-0-7-8-0-8-5-0-5-0-5/7-0-0-4--4-*||

 |-5-5-5-8-0--5-5-5-8-0-0--|--------|------||--0-7-8-0-8-5-0-5-0-5/7-0-0-4--4--||



 sun) shove it shove it shove it (the sun) shove it aside 
 |---------------------------------|----------------------------------------||

 |---------------------------------|----------------------------------------||

 |---------------------------------|----------------------------------------||

 |---------------------------------|----------------------------4-----------||

 |---------------------------------|----------------------------4-----------||

 |-0-7-8-0-8-5-0-5-0-5/7-0-8-4--4--|--0-7-8-0-8-5-0-5-0-5/7-0-8-4-----------||


 Well thats it. I know this is correct...it may be off a little...but you
 can figure 
 out the order and stuff...but asll the riffs are right. 

 -----------------------------------------------------------------------------


 The Axe 
 http://members.xoom.com/theAxe/ 

 Contact me many ways! 
 ICQ:12668079 
 Yahoo! Pager- scorcho409 
 Aol IM- scorcho409 
 email- bananaCo89@hotmail.com 
 
 

Видео