Deftones - Nightboat, аккорды

Прокрутка
Тональность
Шрифт
100
NightBoat 
Deftones/Duran Duran 
???? 
Tab by James Copley (jcopley18@hotmail.com) 
Standard tuning 
with distortion 

Verse 
G|---------------------- 
D|---------------------- 
A|---------3--2/32-0--- 
E|-0-0-2/3------------3- 

Chorus 
G|--------------------- 
D|--------------------- 
A|-------3-3-3-3-2-2-2- 
E|-0--0---------------- 

this is all i could get, there is one more part when there is allot of 
noise that i couldn't figure out. 
 
 

Видео