Deftones - Root, аккорды

Прокрутка
Тональность
Шрифт
100
oot--the Deftones***
------------------------

Written by the Deftones


4-string bass in standard tuning


Main Riff:

G|---------------------------------------------------
D|--------2--2---------------------------------------
A|-------------2--2--3--3--5--5--3--3--2-------------
E|--0--0---------------------------------3--3--0--0--


Bridge:

G|------------------------------------------------------
D|------------------------------------------------------
A|------------------------------------------------------
E|--65--54--43--32--21--1--0--0--0--0--0--0--0--0--

G|------------------------------------------------------
D|------------------------------------------------------
A|------------------------------------------------------
E|--65--54--43--32--21--1--0--0--0--0--0--0--121-


Outro:

G|------------------------
D|------------------------
A|------------------------
E|--0--1--/4--4--4--1--0--

G|--------------------------------------------------
D|--------------------------------------------------
A|-------------------------------------------------- *
E|--0--0--0--1--1--1--4--4--4--5--5--5--4--4--1--1--

   *I think that most of these notes are triplets, but it's kinda hard to
tell...




transcribed by Max Asare

 
 

Видео