Deftones - Street Carp, аккорды

Прокрутка
Тональность
Шрифт
100
Deftones
Street Carp
Tabbed by: KoRny Freak

tuning= CGCFAD
intro
D--------------------------
A--------------------------
F--44444444-4/8888888-----
C---xxxxxx-----xxxxx-------
G--22222222-2/6666666-----
C--------------------------

verse
D--------------------------------------------------
A--------------------------------------------------
F----------------------------------444444444/8888--
C--6-7-6-0-6-9-6-0-6-7-6-0-6-9-6-0--xxxxxxx---xx---
G--6-7-6-0-6-9-6-0-6-7-6-0-6-9-6-0-222222222/6666--
C--6-7-6-0-6-9-6-0-6-7-6-0-6-9-6-0-----------------

chorus
D----------------------------------------------------------
A----------------------------------------------------------
F--8-8-8-8-8-8-8-8-8-8-8-8--9--9----4-4-4-4-4-4-4-4-4-4-4--
C--6-6-6-6-6-6-6-6-6-6-6-6--9--9--2-2-2-2-2-2-2-2-2-2-2-2--
G--6-6-6-6-6-6-6-6-6-6-6-6--7--7--2-2-2-2-2-2-2-2-2-2-2-2--
C--6-6-6-6-6-6-6-6-6-6-6-6--7--7--2-2-2-2-2-2-2-2-2-2-2-2--

3rd and 4rth verse
D----------------------------------
A----------------------------------
F----------------------------------
C-6-7-6-0-6-9-6-0-6-7-6-0-6-9-6-0--
G-6-7-6-0-6-9-6-0-6-7-6-0-6-9-6-0--
C-6-7-6-0-6-9-6-0-6-7-6-0-6-9-6-0--
 
 

Видео