Deftones - Teenager, аккорды

Прокрутка
Тональность
Шрифт
100
tab by phil c.
I like the screaming in the background sound.
Drop D (transposed to C) |c|g|c|f|a|d|.
(you can play the 6's as 1 on the fourth string for the little extra sound.)

intro = x?
(-------------------------------------------------------*|
(--------------------------------------------------------|
(------------(1)---------------(1)---------------(1)-----|
(-------4-----6-----------4-----6-----------4-----6------|
(----2-----------------2-----------------2---------------|
(-2-----------------2-----------------2-----------------*|

guitar one
chorus = x?
(---------------------------------*|  
(----------------------------------|
(----------------------------------|
(-------4-----6-----------4-----6--|
(----4-----------------2-----------|
(-2-----------------2-------------*|


guitar 2 (acoustic finger pick)
chorus = x?
(---------------------------------*|                       
(----------------------------------|
(----------------------------------|
(-------4-----6-----------4-----0--|
(----4-----------------2-----------|
(-2-----------------0-------------*|
 
 

Видео