Del Sueno - Обжигающий ветер, аккорды

Прокрутка
Тональность
Шрифт
100
Вступление: C#m B A B

  C#m    B        A           B  
1)----------------11----------------
2)-5---0----------------12----------
3)-------------------------11-------
4)----------------------------11--9-
5)-------2--------------------------

Куплет:
B             A             C#m     
Она смотрит в даль, она ищет край,
               A
Где тот самый рай? Не видит.
B              A           C#m
Шелест, как пезла, она вне себя,
            A
Всё же слепота - в обмане.
B             A             C#m   
Может кто-то здесь рядом ещё есть.
            A
Раненый в огне и видит её.
B               A                 C#m
Он открыл свой мир, свой огромный мир,
          A
А в ответ лишь одно.

Припев:
C#m         B
Обжигающий ветер
A           B 
Обжигающий ветер и ничего.
C#m         B
Обжигающий ветер
A           B 
Обжигающий ветер и никого.

Проигрыш=Вступление:
  C#m    B        A           B  
1)----------------11----------------
2)-5---0----------------12----------
3)-------------------------11-------
4)----------------------------11--9-
5)-------2--------------------------

Куплет:
B             A             C#m   
А на полках пыль, будто жажда - штиль,
               A
Время словно быль съедает.
B             A             C#m   
Слёзы с неба льют и внутри всё рвут
               A
Они словно ждут когда он уйдёт
B             A             C#m   
Он открыл свой мир, свой огромный мир 
               A
А в ответ лишь одно

Припев:
C#m         B
Обжигающий ветер
A           B 
Обжигающий ветер и ничего.
C#m         B
Обжигающий ветер
A           B 
Обжигающий ветер и никого.

Проигрыш=Вступление:
  C#m    B        A           B  
1)----------------11----------------
2)-5---0----------------12----------
3)-------------------------11-------
4)----------------------------11--9-
5)-------2--------------------------

Проигрыш:
A          B
Что может нам
C#m        E
Закрыть глаза? (Никого)
A           B
Есть только брак
C#m       E 
И больше ничего (Никого)

Припев:
C#m         B
Обжигающий ветер
A           B 
Обжигающий ветер и ничего.
C#m         B
Обжигающий ветер
A           B 
Обжигающий ветер и никого.

C#m        B
Что может нам
A          B
Закрыть глаза? (Никого)
C#m         B
Есть только брак
A         B   C#m
И больше никого

Комментарий автора:

Бой: v v V v^  v v V v^
 
 
Свернуть Распечатать

Видео