Дельфин - Июнь (btab), аккорды

Прокрутка
Тональность
Шрифт
100
Intro: x2
Bass 1:
G|-------------------|-------------------|
D|-12-12-12-12-12-12-|-14-14-14-14-14-14-|
B|-------------------|-------------------|
A|-------------------|-------------------|

|-------------------|-------------------|
|-10-10-10-10-10-10-|-10-10-10-10-10-10-|
|-------------------|-------------------|
|-------------------|-------------------|

|-------------------|-------------------|
|-12-12-12-12-12-12-|-10-10-10-10-10-10-|
|-------------------|-------------------|
|-------------------|-------------------|

|-------------------|-------------------|
|-12-12-12-12-12-12-|-12-12-12-12-12-12-|
|-------------------|-------------------|
|-------------------|-------------------|
  
Bass 2:
|---------|---------|-------|
|-12--12--|-14--14--|-10----|
|---------|---------|-------|
|---------|---------|-------|

|----------14-|---------------|------|
|-10/12--12---|-14--14--14h15-|-7----|
|-------------|---------------|------|
|-------------|---------------|------|

Verse 1: x2
Bass 1:
|---------|---------|-------|
|-12--12--|-14--14--|-10----|
|---------|---------|-------|
|---------|---------|-------|

|-----------14---------------|------|
|-10/12--12----14--14--14h15-|-7----|
|----------------------------|------|
|----------------------------|------|

Chorus 1: x2
Bass 1:
|-----|-10----14-|-14-10--|-12p10--------------|
|-----|----------|-0------|-----12-10-12-10/12-|
|-8---|-10-------|--------|--------------------|
|-----|----------|--------|--------------------|

Bridge 1: x2
Bass 1:
|-----|-10----14-|-14-10--|-12p10---------------|
|-----|----------|-0------|------12-10-12-10/12-|
|-8---|-10-------|--------|---------------------|
|-----|----------|--------|---------------------|

Bass 2:
|-19---|---21-21-|-21--17-17-17--14-14-|
|------|---------|---------------------|
|------|---------|---------------------|
|------|---------|---------------------|

|-14--10-10-10--12-10-12-|-/14-|
|------------------------|-----|
|------------------------|-----|
|------------------------|-----|
 
Verse 2: x2
Bass 1: x2
|-19-19-19-19-19-19-|-21-21-21-21-21-21-|
|-------------------|-------------------|
|-------------------|-------------------|
|-------------------|-------------------|

|-----------------|------------------| 
|10-10-10-10-1010-|-10-10-10-10-1010-|
|-----------------|------------------| 
|-----------------|------------------| 

|-19-19-19-19-19-19-|-17-17-17-17-17-17-|
|-------------------|-------------------|
|-------------------|-------------------|
|-------------------|-------------------|

|-------------------|-------------------|
|-12-12-12-12-12-12-|-12-12-12-12-12-12-|
|-------------------|-------------------|
|-------------------|-------------------|

Bass 2: x1
|---------|---------|-------|
|-12--12--|-14--14--|-10----|
|---------|---------|-------|
|---------|---------|-------|

|----------14-|---------------|---|
|-10/12--12---|-14--14--14h15-|-7-|
|-------------|---------------|---|
|-------------|---------------|---|

Chorus 2: x4
Bass 1:
|-----|-10----14-|-14-10--|-12p10---------------|
|-----|----------|-0------|------12-10-12-10/12-|
|-8---|-10-------|--------|---------------------|
|-----|----------|--------|---------------------|

Bass 2:
|--10-------------|---10---12-12/14-|---10------------|
|12--12--10-10/12-|-12--12----------|-12--12-10-10/12-|
|-----------------|-----------------|-----------------|
|-----------------|-----------------|-----------------|

Bridge 2: x1
Bass 1:
|-17----|----10-12-|-12-14-|---|-17--14-|-21--17-|----|-7-9-|
|-------|----------|-------|---|--------|--------|----|-----|
|-------|----------|-------|---|--------|--------|----|-----|
|-------|----------|-------|---|--------|--------|----|-----|

|-17----|-14---17--|-21-22-|---|-21--17-|-19--14-|
|-------|----------|-------|---|--------|--------|
|-------|----------|-------|---|--------|--------|
|-------|----------|-------|---|--------|--------|

Bass 2:
|---------|---------|-------|
|-12--12--|-14--14--|-10----|
|---------|---------|-------|
|---------|---------|-------|

|----------14-|---------------|--------------|-----------|
|10/12--12----|-14--14--14h15-|--7-------7-7-|---------7-|
|-------------|---------------|-5-5-5-5------|-5-5-5-5---|
|-------------|---------------|--------------|-----------|

|--------|--------|--------------|-------------|
|12--12--|14--14--|-10------1010-|--------1010-|
|--------|--------|-8-8-8-8------|-8-8-8-8-----|
|--------|--------|--------------|-------------|

|----------14-|---------------|--------------|-----------|
|10/12--12----|-14--14--14h15-|--7-------7-7-|---------7-|
|-------------|---------------|-5-5-5-5------|-5-5-5-5---|
|-------------|---------------|--------------|-----------|

Verse 3: x1
Bass 1:
|-19-19-19-19-19-19-|-21-21-21-21-21-21-|
|-------------------|-------------------|
|-------------------|-------------------|
|-------------------|-------------------|

|-------------------|-------------------|
|-10-10-10-10-10-10-|-10-10-10-10-10-10-|
|-------------------|-------------------|
|-------------------|-------------------|

|-19-19-19-19-19-19-|-17-17-17-17-17-17-|
|-------------------|-------------------|
|-------------------|-------------------|
|-------------------|-------------------|

|-------------------|----|
|-12-12-12-12-12-12-|-12-|
|-------------------|----|
|-------------------|----|

Chorus 3: x4
Bass 1:
|-----|-10----14-|-14-10--|-12p10---------------|
|-----|----------|-0------|------12-10-12-10/12-|
|-8---|-10-------|--------|---------------------|
|-----|----------|--------|---------------------|

Bass 2:
|--10-------------|---10---12-12/14-|---10------------|
|12--12--10-10/12-|-12--12----------|-12--12-10-10/12-|
|-----------------|-----------------|-----------------|
|-----------------|-----------------|-----------------|

Bass 3:
|-19---|---21-21-|-21--17-17-17--14-14-|
|------|---------|---------------------|
|------|---------|---------------------|
|------|---------|---------------------|

|-14--10-10-10--12-10-12-|-/14-|
|------------------------|-----|
|------------------------|-----|
|------------------------|-----|

|------|---21-21-|-21--17-17-17--14-14-|
|------|---------|---------------------|
|------|---------|---------------------|
|------|---------|---------------------|

|-14--10-10-10--12-10-12-|
|------------------------|
|------------------------|
|------------------------|

Outro:
|-14-17-14-17-19-|---21-21-|-21--17-17-17--14-14-|
|----------------|---------|---------------------|
|----------------|---------|---------------------|
|----------------|---------|---------------------|

|-14--10-10-10--12-10-12-|-/14-|
|------------------------|-----|
|------------------------|-----|
|------------------------|-----|

|------|---21-21-|-21--17-17-17--14-14-|
|------|---------|---------------------|
|------|---------|---------------------|
|------|---------|---------------------|

|-14--10-10-10--12-10-12-|-14-17-14-17-19~~-|
|------------------------|------------------|
|------------------------|------------------|
|------------------------|------------------|

Bass 1{
|-----|-10----14-|-14-10--|12p10--------------|
|-----|----------|-0------|-----12-10-12-10/12|
|-8---|-10-------|--------|-------------------| x2
|-----|----------|--------|-------------------|

Bass 2:
|--10-------------|--10---12-12/14-|---10------------|
|12--12--10-10/12-|-12--12---------|-12--12-10-10/12-|
|-----------------|----------------|-----------------| x2
|-----------------|----------------|-----------------|
 
 

Видео