Дельфин - Любовь, аккорды

Прокрутка
Тональность
Шрифт
100
Intro:
G--4--7--5------4----|
D--------------------|
A--------------------|
E--------------------|

Куплет:
G-----4--------------|
D--------0--2--4-----|
A---2----------------|
E--------------------|

Это больше, чем мое сердце,
Это страшнее прыжка с крыши
Это громче крика бешеного
Но гораздо тише писка забитой мыши
Это то, что каждый всю жизнь ищет
Находит, теряет, находит вновь
Это то, что в белой фате со злобным оскалом по свету рыщет
Я говорю тебе про любовь

Припев: (играется  слайдами)
G-----------------------------|
D-----------------------------|
A--2---2->5---5->7---7->5-----|
E-----------------------------|
Па-па па па

Куплет:
G-----4--------------|
D--------0--2--4-----|
A---2----------------|
E--------------------|

Она сама по себе невесома
Она легче чем твои мысли
Но вспомни как душу рвало когда она уходила
Как на глазах твоих слезы висли
Она руками своими нежными петрлю на шею тебе набросит
Не оставляя от тебя ничего прежнего сама на цыпочки встать попросит
Ты даже не сможешь ее увидеть
Ты никогда не заглянешь в ее глаза
А думаешь только о том как бы ее необитеть
Не веря в то что она действительно зла
Ты можешь с ней расцвести и засохнуть
Она сожрет тебя как цветок тля
Но все равно лучше уж так сдохнуть
Чем никого никогда не любя

Припев: (играется  слайдами)
G-----------------------------|
D-----------------------------|
A--2---2->5---5->7---7->5-----|
E-----------------------------|
Па-па па па

Куплет:
G-----4--------------|
D--------0--2--4-----|
A---2----------------|
E--------------------|

С ней хорошо без нее как-то странно
Мне не хватает ее слез радости
Если она пришла то тут же уходит
Плавно кидая в лицо какие-то гадости
И я держу свою дверь закрытой (закрытой)
Что бы стучалась она перед тем как ко мне войти
Что бы не оказалась она той мною давно забытой
...То есть с которой мне не по пути

G--4--7--5------4----|
D--------------------|
A--------------------|
E--------------------|

G-----------------------------|
D-----------------------------|
A--2---2->5---5->7---7->5-----|
E-----------------------------|
Па-па па па

Outro:
G--4--7--5------4------|
D----------------------|
A--------------------2-|
E----------------------|
 
 

Видео