Дельфин - Серебро, аккорды

Прокрутка
Тональность
Шрифт
100
Мы с тобою - две капли разные
Одной воды... Слезы облака...

Dm         Dm   
Разобьемся об землю стразами
Dm         Dm
Разлетимся вокруг да около
F          F  
Бесконечное вниз стремление
Am7          Am7         
Награжденное солнца взглядом
F          F  
Принесет траве упоение
Am7          Am7         
Нас с тобою положат рядом

F - F - Am7 - Am7 - Dm - Dm - Dm - Dm }x2 

 F          F 
Может быть попадем на лица
Am7      Am7
По щекам разотрут руками
Dm          Dm 
Нас не станет с тобой сестрица
Dm          Dm
Сохнет кожа воды следами
 F           F
Или может быть в стекла оконные
Am7           Am7
Сердцем осени постучимся
Dm           Dm  
Разбудить нам печали сонные
Dm           Dm
Тихим стоном души случится

В припеве играется перебор:
E||---5---5-------5---8---1---1---1-------1---1---||
B||--6---6---6---6---8---3---3---3---3---3---3---3||
G||-5---5-------5---9---2---2---2-------2---2-----||
D||3-----------3---7---0---0-----------0----------||
A||-----------------------------------------------||
E||-----------------------------------------------||

F           Am7       Dm
И нас с тобою не отыскать
F              Am7   Dm 
Все что мы есть - вода
F            Am7    Dm
Лишь остается   ждать
F     Am7   Dm
Серебро дождя

 F           F
Нам с тобою земли не коснуться
 Am7         Am7
Мы исчезнем в горящем пламени
 Dm            Dm
Чтобы еще один раз завернуться
Dm            Dm
В нежный шелк темно-синего знамени
 F         F 
Чтобы еще раз подняться
 Am7      Am7
И чтобы опять пролиться
 Dm           Dm
Только бы не остаться
 Dm            Dm
Вечности льдом искрится

Припев: x2
E||---5---5-------5---8---1---1---1-------1---1---||
B||--6---6---6---6---8---3---3---3---3---3---3---3||
G||-5---5-------5---9---2---2---2-------2---2-----||
D||3-----------3---7---0---0-----------0----------||
A||-----------------------------------------------||
E||-----------------------------------------------||

F           Am7       Dm
И нас с тобою не отыскать
F              Am7   Dm 
Все что мы есть - вода
F            Am7    Dm
Лишь остается   ждать
F     Am7   Dm
Серебро дождя
 
 
Свернуть Распечатать

Видео