Destinys Child - Say My Name, аккорды

Прокрутка
Тональность
Шрифт
100
Artist: Destiny's Child
Song: Say My Name
Tuning: E A D G
Transcribed by: Adam Ellinport (meliquix@aol.com)

This song is very easy just listen to it and it will make sense. 
Also there is no bass on intro. You can mess around with the pattern.

Verse: 
G|-----------|---------|---------|-----------|
D|-----------|---------|---------|-----------|
A|-3---3-----|-------1-|-2-3---3-|-----------|
E|-------4---|-1---1---|---------|-4---1---1-|
   1 2 3 4 &   1 2 3 4   1 2 3 4   1 2 3 4 &
           
G|---3---4---|
D|----------:|
A|-1---2----:|
E|-----------|
   1 2 3 4 &  

Bridge: Pretty much same also just mess around with notes and pattern its a lil faster.
Chorus: Pretty much same mess around with the pattern a little more.
 
 

Видео