Диана Арбенина - Я спросил у ясеня (ft Сергей Трофимов), аккорды

Прокрутка
Тональность
Шрифт
100
   Am
E||---------------------(0)---|---------------------||
B||-----------0----------1----|--------0------------||
G||--------2----------2-------|-----2-------2-------||
D||-----2----------2----------|--2-------------2----||
A||--0------------------------|---------------------||
E||---------------------------|---------------------||

   A / F#
E||---------------------(0)---|---------------------||
B||-----------0----------1----|--------0------------||
G||--------2----------2-------|-----2-------2-------||
D||-----2----------2----------|--2-------------2----||
A||---------------------------|---------------------||
E||--2------------------------|---------------------||

   F
E||----------------------(1)--|---------------------||
B||-----------0-----------1---|--------0------------||
G||--------2----------2-------|-----2-------2-------||
D||-----3----------3----------|--3-------------3----||
A||---------------------------|---------------------||
E||--1------------------------|---------------------||

   E
E||----------------------0----|---------------------||
B||-----------0-------0-------|--------0------------||
G||--------1-------1----------|-----1-------1-------||
D||-----2---------------------|--2-------------2----||
A||---------------------------|---------------------||
E||--0------------------------|---------------------||

   Am
E||---------------------(0)---|---------------------||
B||-----------0----------1----|--------0------------||
G||--------2----------2-------|-----2-------2-------||
D||-----2----------2----------|--2-------------2----||
A||--0------------------------|---------------------||
E||---------------------------|---------------------||

   Dm
E||-----------1----------0----|--------1------------||
B||--------3----------3-------|-----3-------3-------||
G||-----2----------2----------|--2-------------2----||
D||--0------------------------|---------------------||
A||---------------------------|---------------------||
E||---------------------------|---------------------||

   G
E||----------------------3----|---------------------||
B||-----------0-------0-------|--------3------------||
G||--------0-------0----------|-----0-------0-------||
D||-----0---------------------|--0-------------0----||
A||---------------------------|---------------------||
E||--3------------------------|---------------------||

   C                  E
E||---------------------------|-----------0---------||
B||-----------1---------------|---------------------||
G||--------0------------------|--------1------------||
D||-----2---------------------|-----2---------------||
A||--3------------------------|---------------------||
E||---------------------------|--0------------------||

   A#
E||----------------------1----|--------0------------||
B||-----------3-------3-------|----------------3----||
G||--------3-------3----------|-----3-------3-------||
D||-----3---------------------|--3------------------||
A||--1------------------------|---------------------||
E||---------------------------|---------------------||

   A
E||---------------------------|------------------0--------(0)--||
B||-----------2---------------|--3--------(2)----2-----(2)-----||
G||--------2-------------(2)--|--2-----(2)-------2--(2)--------||
D||-----2-----------(2)-------|--2--(2)------------------------||
A||--0------------------------|--------------------------------||
E||---------------------------|--------------------------------||

   Dm
E||-----------1----------0----|--------1------------||
B||--------3----------3-------|-----3-------3-------||
G||-----2----------2----------|--2-------------2----||
D||--0------------------------|---------------------||
A||---------------------------|---------------------||
E||---------------------------|---------------------||

   F6                  E
E||-----------1---------------|-----------0---------------||
B||--------3-------3-----3----|--------0-------0-----0----||
G||-----2-------------2-------|-----1-------------1-------||
D||---------------------------|---------------------------||
A||--3------------------------|--2------------------------||
E||---------------------------|---------------------------||

   E
E||----------------------0----|---------------------||
B||-----------0-------0-------|--------0------------||
G||--------1-------1----------|-----1-------1-------||
D||-----2---------------------|--2-------------2----||
A||---------------------------|---------------------||
E||--0------------------------|---------------------||

   F
E||----------------------(1)--|---------------------||
B||-----------0-----------1---|--------0------------||
G||--------2----------2-------|-----2-------2-------||
D||-----3----------3----------|--3-------------3----||
A||--3------------------------|---------------------||
E||---------------------------|---------------------||

   Bm                  F#sus4
E||---------------------------|---------------------------||
B||-----------3---------------|-----------2---------------||
G||--------4-------4-----4----|--------4-------4-----4----||
D||-----4-------------4-------|-----4-------------4-------||
A||--2------------------------|---------------------------||
E||---------------------------|--2------------------------||

   E
E||----------------------0----|---------------------||
B||-----------0-------0-------|--------0------------||
G||--------1-------1----------|-----1-------1-------||
D||-----2---------------------|--2-------------2----||
A||---------------------------|---------------------||
E||--0------------------------|---------------------||

   Am
Как больно, милая, как странно,
   A / F#
Сроднясь в земле, сплетясь ветвями,-
   F
Как больно, милая, как странно
   E
Раздваиваться под пилой.
   Am
Не зарастет на сердце рана,
Dm
Прольется чистыми слезами,
G
Не зарастет на сердце рана -
   C           E
Прольется пламенной смолой.

 A#
Пока жива, с тобой я буду -
 A
Душа и кровь нераздвоимы,-
 Dm
Пока жива, с тобой я буду -
 F6                E
Любовь и смерть всегда вдвоем.
E
Ты понесешь с собой повсюду -
F
Ты понесешь с собой, любимый, -
Bm / F#sus4
Ты понесешь с собой повсюду
E
Родную землю, милый дом...

Am       E7
Я спросил у ясеня
A      Dsus2
Где моя любимая
Bm7 E   Am
Ясень не ответил мне
 D / Bb   E7
Качая головой
A7       Dm
Я спросил у тополя
 G6     C
Где моя любимая
Dm   G   C
Тополь забросал меня
 Dm / Bm7   E7
Осеннею листвой

Am       E7
Я спросил у осени
A      Dsus2
Где моя любимая
Bm7 E   Am
Осень мне ответила
 D / Bb   E7
Проливным дождем
A7       Dm
У дождя я спрашивал
 G6     C
Где моя любимая
Dm   G   C
Долго дождик слезы лил
 Dm / Bm7  E7
За моим окном

Am       E7
Я спросил у месяца
A      Dsus2
Где моя любимая
Bm7 E   Am
Месяц скрылся в облаке
 D / Bb   E7
Не ответил мне
A7       Dm
Я спросил у облака
 G6     C
Где моя любимая
Dm   G   C
Облако растаяло
 Dm / Bm7   E7
В небесной синеве...

   Am
...Трясясь в прокуренном вагоне,
   A / F#
Он стал бездомным и смиренным,
   F
Трясясь в прокуренном вагоне,
   E
Он полуплакал, полуспал,
   Am
Когда состав на скользком склоне
Dm
Вдруг изогнулся страшным креном,
G
Когда состав на скользком склоне
   C           E
От рельс колеса оторвал.

 A#
Нечеловеческая сила,
 A
В одной давильне всех калеча,
 Dm
Нечеловеческая сила
 F6                E
Земное сбросила с земли.
E
И никого не защитила
F
Вдали обещанная встреча,
Bm / F#sus4
И никого не защитила
E
Рука, зовущая вдали...

Am       E7
...Друг ты мой единственный
A      Dsus2
Где моя любимая
Bm7 E   Am
Ты скажи где скрылася
 D / Bb   E7
Знаешь где она
A7       Dm
Друг ответил преданный
 G6     C
Друг ответил искренний
Dm   G   C
Была тебе любимая
Dm   G   C
Была тебе любимая
Dm   G   C
Была тебе любимая
 Dm / Bm7   E7
А стала мне жена...

 A#
С любимыми не расставайтесь!
 A
С любимыми не расставайтесь!
 Dm
С любимыми не расставайтесь!
 F6                E
Всей кровью прорастайте в них, -
E
И каждый раз навек прощайтесь!
F
И каждый раз навек прощайтесь!
Bm / F#sus4
И каждый раз навек прощайтесь!
E
Когда уходите на миг!

Am       E7
...Я спросил у ясеня...

Комментарий автора:

Стихи - Вл. Мих. Киршон, 
Музыка Тихон Хренников - Сергей Никитин.
 
 

Видео