Dickinson Bruce - Arc Of Space, аккорды

Прокрутка
Тональность
Шрифт
100
Песня очень красивая, чтобы хорошо подобрать бой прослушайте
ее несколко раз! Up the Irons! 
Intro solo
 
e-|---------|-----------|----5------|-----------|------|
B-|-5---5-6-|-8--6-5----|---5--5-6--|-8----6--5-|---5--|
G-|---------|---------7-|-----------|-----------|------|
D-|---------|-7---------|-7---------|-----------|------|
A-|---------|-----------|-----------|-----------|------|
E-|---------|-----------|-----------|-----------|------|
  Am Am   G   Dm   Am   Am  G   Dm   Am Am

e-|---------|----------|-----------|---------------------|--------------|---------------------|
B-|---------|----------|-------5---|---------------------|-5------------|---------------------|
G-|-7-7-7-4-|-5--------|-7-7-7---7-|-5-------------------|---7--5-7-5---|-----5-7-5-----------|
D-|---------|----------|---------7-|-5-7-------7-5---5-7-|--------------|---------------------|
A-|---------|----7-----|-----------|---------------------|--------------|---------------------|
E-|---------|----------|-----------|---------------------|--------------|---------------------|

  Dm     Am  Dm       Am  G         G

Verse 1
	Am       G    Dm   Am
	There, ..
	   G     Dm   Am
	The pilgrims ...
	Dm        Am     Dm        Am
	Waiting ...
	   G       Cadd9
	The arc of space ...

Verse 2
	Am        G     Dm   Am
	Truth, ...
	  G   Dm     Am
	Perhaps ...
	   Dm      Am   Dm           Am
	The hope ...
	G      Cadd9
	....

	F G Am Am
	F G Am Am

Chorus
	F   G     Am
	In ..
	F   G     Am
	In ...
	F   E     Am     G     F
	In ...
	       E
	It´s ...

Solo
Chords Am F G G
last time Am F E E

--------------------------------------------
--------------------------------5-----------
---------------4-5-5/7-5-4----5---5---7---5-
--------7----7-------------5--------5---5---
-7--7-7----7--------------------------------
--------------------------------------------

--------------------8p5-------------5-7-9-10-12-
-5-6/8-8-8-6-5-6/8------6h8p6/5---8-------------
--------------------------------7---------------
------------------------------------------------
------------------------------------------------
------------------------------------------------

-10-8-10--8-5/8-8h10-10-10------------------------------ 
----------------------------6/8-8-8/10-8-6-5-6-5--6-8-6- 
-------------------------------------------------------- 
-------------------------------------------------------- 
-------------------------------------------------------- 
--------------------------------------------------------

I haven´t worked out the run, but it starts on an A

Chorus x2

Run before last verse

-----------------
-5-6-3-5-1-3-0---
---------------1-
-----------------
-----------------
-----------------
 
 

Видео