Dickinson Bruce - Man Of Sorrows, аккорды

Прокрутка
Тональность
Шрифт
100
Итак, тут куплет, идет эта таблатура примерно 4 раза потом припев:
-1--1--------------|----------1--1------|--------------------
-3--3--------------|-1--1-----3--3----1-|--------------------
-2--2-----3--3-----|-0--0-----2--2----0-|--7-----------------
-0--0-----3--3-----|-2--2-----0--0----2-|--7--7--7--7--7--7--
----------1--1-----|-3--3-------------3-|--5--5--5--5--5--5--
-------------------|--------------------|--------------------
 
это тоже куплет:
-------------------|--------------------|------
-------------------|--------------------|------
-7-----------------|-5--------3---3--5--|--7---
-7--------7--------|-5--------3---3--5--|--7---
-5--------7--------|-3--------1---1--3--|--5---
----------5--------|--------------------|------

Припев:
Man  of sorrows i want   see/// далше не помню
-------------------|--------------------|------------
-------------------|--------------------|------------
-7--------5--------|-7--------5---------|-3--------5-
-7--------5--------|-7--------5---------|-3--------5-
-5--------3--------|-5--------3---------|-1--------3-
-------------------|--------------------|------------

Interlude после соло ..я не знаю как его играть...
-------------------|-------------------
-------------------|-------------------
-7-----------------|-5--------3---3--5-
-7--------7--------|-5--------3---3--5-
-5--------7--------|-3--------1---1--3-
----------5--------|-------------------
 
 

Видео