Doobie Brothers - China Grove, аккорды

Прокрутка
Тональность
Шрифт
100
I found a tab that was pretty close to the song and
then fixed it up a little.  It sounds a lot better
when played this way.

|-----X-X-X-----X-X-X---X---X---X-X-X-----|
|-----X-X-X-----X-X-X---X---X---X-X-X-----|
|-9-9-X-X-X-9-9-X-X-X-7-X-6-X-2-X-X-X-9-9-|
|-9-9-X-X-X-9-9-X-X-X-7-X-6-X-2-X-X-X-9-9-|
|-7-7-X-X-X-7-7-X-X-X-5-X-4-X-0-X-X-X-7-7-|
|-----X-X-X-----X-X-X---X---X---X-X-X-----|


|-X-X-X-----X-X-X-----X-X-X---X---X---X-X-X--------------X-X-X-|
|-X-X-X-----X-X-X-----X-X-X---X---X---X-X-X--------------X-X-X-|
|-X-X-X-9-9-X-X-X-9-9-X-X-X-7-X-6-X-2-X-X-X-9-9----------X-X-X-|
|-X-X-X-9-9-X-X-X-9-9-X-X-X-7-X-6-X-2-X-X-X-9-9----------X-X-X-|
|-X-X-X-7-7-X-X-X-7-7-X-X-X-5-X-4-X-0-X-X-X-7-7--0-1-2-3-X-X-X-|
|-X-X-X-----X-X-X-----X-X-X---X---X---X-X-X--------------X-X-X-|

Repeat this through most of the song.

submitted by Will Thoburn
 
 
Свернуть Распечатать

Видео