Doobie Brothers - Long Train Running, аккорды

Прокрутка
Тональность
Шрифт
100
Song:	Long train running
Artist:	Doobie Brothers

TABr:DokleVishe@Yahoo.co.uk

  If you like to play the bass and dance at the same time this is the song for
you.  It is simple, the left hand is static and the rithm is steady.  Go for it.

BASS

Repeat

Verse riff1:
G|----------------|----------------|
D|----------------|----------------|
A|----------------|--------3---5---|x4
E|3-----3-----6---|--6----5--------|

Verse riff2:
G|----------------|----------------|
D|----------------|--------3---5---|
A|3-----3-----6---|--6----5--------|x2
E|----------------|----------------|

Verse riff1:(again)
G|----------------|----------------|
D|----------------|----------------|
A|----------------|--------3---5---|x2
E|3-----3-----6---|--6----5--------|

Chorus:
G|----------------|----------------|----------------|----------------|
D|----------------|----------------|----------------|----------------|
A|6-----6-----6---|--6-----6-------|5-----5-----5---|--5-----5-------|
E|----------------|------6-----6---|----------------|------5-----5---|

Until (You Go Mad) || (Everyone Else Does)
 
 

Видео