Doors - Break On Through, аккорды

Прокрутка
Тональность
Шрифт
100
Intro/Verse:
E
      sl                  .  .		    sl               .
e|--------------------------------------|---------------------------------
B|-------------------------------------.|---------------------------------
G|--------------------------------------|---------------------------------
D|---------------2--0-----2--2-----0---.|----------2--0-----2--2-----0--2-
A|--------------------(2)-------2-------|---------------(2)-------2-------
E|----12---(0)--------------------------|-12--(0)-------------------------
You know the day destroys the night,       night divides the day

Bridge:
D
e|----2-------2------------2--------2----
B|----3-------3------------3--------3----
G|----2-------2------------2--------2----
D|----0-------0------------0--------0----
A|---(0)-----(0)----------(0)------(0)---
E|---------------------------------------
      Tried to run,         tried to hide
Chorus:
E                                          ______________________________
                                          |3
e|----------------------------------------|------------------------------
B|----------------------------------------|------------------------------
G|----------------------0h2p0-------------|---------------------0h2p0----
D|---------------0-1h2----------2---0--2--|--------------0-1h2---------2-
A|--------0h1-2---------------------------|-------0h1-2------------------
E|---0-3----------------------------------|--0-3-------------------------
Break on through to the other side, break on through to the other side,
Break on through to the other side, yeah.

Revised Chorus:
E                                          __________________________________
                                          |4
e|----------------------------------------|----------------------------------
B|----------------------------------------|----------------------------------
G|----------------------0h2p0-------------|----------------------------------
D|---------------0-1h2----------2---0-2---|-----------0h1h2------------0h1h2-
A|--------0h1-2---------------------------|-----0h1h2------------0h1h2-------
E|---0-3----------------------------------|-0-3--------------0-3-------------
Break on through to the other side, break on through to the other side,
Break on through, oh...oh yeah...

Second Bridge:
E7#9
e|-----15--15------15---15---15-----15--15----15---15---15---X---15-
B|-----15--15------15---15---15-----15--15----15---15---15---X---15-
G|-----13--13------13---13---13-----13--13----13---13---13---X---13-
D|------------------------------------------------------------------
A|------------------------------------------------------------------
E|--0-----------------0----0----0-----------0----0----0-------------

Outro:
E
e|------------------------------------------------------------------------
B|------------------------------------------------------------------------
G|-------------------0h2p0---------------------------------0h2p0----------
D|-------------0-1h2---------2--0-2------------------0-1h2--------2---0-2-
A|-------0h1-2---------------------------------0h1-2----------------------
E|---0-3-----------------------------------0-3----------------------------
Break on through to the other side, break on through to the other side,

E
e|------------------------------------------------------
B|------------------------------------------------------
G|------------------------------------------------------
D|--------------0-2---------------0-2---------------0-2-
A|-------0h1h2-------------0h1h2-------------0h1h2------
E|---0-3---------------0-3---------------0-3------------
   Break on through, break on through, break on through

e|---------------------0-----0---0-0--0-0--0-0--0-0--0-0--0-0--0-0--0-0--0-0-
B|-----------2h3h5----b3----b3----b3---b3---b3---b3---b3---b3---b3---b3---b3-
G|---0h2h3h4-----------------------------------------------------------------
D|---------------------------------------------------------------------------
A|---------------------------------------------------------------------------
E|---------------------------------------------------------------------------
    Break on through, yeah, yeah, yeah, yeah, yeah, yeah, yeah, yeah, yeah!

____________________________________________

Riff 1: x1
--0--0--0-0--0-0--0--0-0--0-3-3--3-3--0-3-0--
--0--0--0-0--0-0--0--0-0--0-3-3--3-3--0-3-0--
---------------------------------------------
---------------------------------------------
---------------------------------------------
---------------------------------------------

Riff 1: x3
--0-0-0--7-7-7-5-------
---------------------7-
-----------------------
-----------------------
-----------------------
-----------------------

Riff 3: x3
--12b13--12b13--12b13--12b13--10h12--
-------------------------------------
-------------------------------------
-------------------------------------
-------------------------------------
-------------------------------------

Riff 4: x3
--12-12--10-10--12-12-12--10-10--
---------------------------------
---------------------------------
---------------------------------
---------------------------------
---------------------------------

Then you fall back into the verse tab:
----------------------------
----------------------------
----------------------------
---------2-0----2-2----0----
--------------2------2----2-
--7s0-----------------------
 
 

Видео