Doors - Light My Fire, аккорды

Прокрутка
Тональность
Шрифт
100
Intro:
 G                    D
e|-------------------------------------|
B|-12----------12--15---13--12---------|
G|-------12h14------------------14--12-|
D|-------------------------------------|
A|-------------------------------------|
E|-------------------------------------|

 F                  Bb
---------------------------------------|
----------------18--15p13--------------|
-14----------14-----------15-14-12-----|
-------15h17------------------------15-|
---------------------------------------|
---------------------------------------|

 Db                 Ab
---------------------------------------|
---------------------------------------|
-12----------12-15--14p12--------------|
-------13h15--------------15-13-12--13-|
---------------------------------------|
---------------------------------------|

 A
-----------------------------------17-|
----------------------14-----17-------|
-14-------------14--------14----14----|
--------------------------------------|
-------------12----12-----------------|
--------------------------------------|
 
 

Видео