Doors - Love Me Two Times, аккорды

Прокрутка
Тональность
Шрифт
100
Intro:
   E	   (first time only)
e--------------------------------------------------|
b--------------------------------------------------|
g------------------------------0t1---------0t1-----|
d-----0-----2-----0--2-----------------------------|
a--2-----2-----2(0)------2--2--------2--2----------|
e------------------------0--0--------------------0-|

     A                       E            D7 
e---------5---------------|------------------2---2---|
b---5-----------8vvvv-----|------3---------1---1-----|
g---6--6-----6------------|----2---2-----2---------2-|
d-------------------------|--0---------0-------------|
a-------------------------|--------------------------|
e-------------------------|--------------------------|

				       C7	       G
e--------------------------------------3--3--3--3--3--------|
b--------------------------------------5--5--5--5--5---3--3-|
g-------------------7b9--7--5vvv-------3--3--3--3--3---4--4-|
d--------------------------------------5--5--5--5--5---5--5-|
a--------------------------------------3--3--3--3--3---5--5-|
e-----------------------------------------------------------|
  One for tomorrow, one  just for today


    D7     C7    B7     E			E7#9
                       _________1__________ ____________2______________
e------------------------------------------|-------------------------|
b---7--7--5--5--4---4----------------------|-8-8-8-8-8-8-8-8-8-8-8-8-|
g---5--5--3--3--2---2--1-------------------|-7-7-7-7-7-7-7-7-7-7-7-7-|
d---7--7--5--5--4---4--0--2----0---2---0-2-|-6-6-6-6-6-6-6-6-6-6-6-6-|
a-----------------------2--2--2---2---2----|-7-7-7-7-7-7-7-7-7-7-7-7-|
e-----------------------0------------------|-------------------------|

(After 2nd Chorus):
   G	  D7	  C7	 B7	E
e--------------------------------------------------|
b--3--3---7--7---5--5---4---4----------------------|
g--4--4---5--5---3--3---2---2----------------------|
d--5--5---7--7---5--5---4---4----2---0-2---2---0-2-|
a--5--5-------------------------2---2-----2---2----|
e--------------------------------------------------|

Keyboard Solo:
   E
e-0--3p0--5p0--7--5--3--3-0--5p0--7p0--/10--7--5---0--5--7--5--|
b--------------------------------------------------------------|
g--------------------------------------------------------------|
d--------------------------------------------------------------|
a--------------------------------------------------------------|
e--------------------------------------------------------------|

				      A7
e-3--5--3---5p0--7p0--/10p0--7--0--|---0--10p0--7p0--5--3--5-...-|
b----------------------------------|-----------------------------|
g----------------------------------|-----------------------------|
d----------------------------------|-----------------------------|
a----------------------------------|-----------------------------|
e----------------------------------|-----------------------------|
 
 

Видео