Doors - People Are Strange, аккорды

Прокрутка
Тональность
Шрифт
100
           Em                           A7
e|---------|-----------------------------|--------------------------------|
B|---------|-----------------------------|--------------------------------|
G|---------|-------------0---------------|-------------2--0---------------|
D|---------|---------2-----------2-------|------2---------------2---------|
A|-2--0----|-----2------------------2--1-|-0-------------------------2--1-|
E|-------3-|--0--------------------------|--------------------------------|
           People are strange           when you're a  stran-ger

A7                            B              Em
-----------------------------|-----------------------------|
-----------------------------|-----------------------------|
-------2----------0----------|-----------------------------|
----2-------2----------------|-------------1---------------|
-0----------2--------0--1--2-|------2--------------2--0----|
-----------------------------|-2--------------0----------3-|
 faces look ug-ly              when you're al-one.
                    |--3--|

Em                            A7          
-----------------------------|-------------------------------|
-----------------------------|-------------------------------|
-------------0---------------|-------------2---0-------------|
--------2------------2-------|------2----------------2-------|
----2-------------------2--1-|-0------------------------2--1-|
-0---------------------------|-------------------------------|
Wo-men seem wick-ed           When you're un-wanted

A7                               B               Em
------------------------------|--------------------------------|
------------------------------|--------------------------------|
--------2---------------------|------------------------0-----0-|
---2---------2-----2----------|----------1----------------2----|
0---------------------0--1--2-|-----2--------------------------|
----------------0-------------|--2--------------0--------------|
Streets look un-   even             When you're down. 
                      |--3--|

Chorus:
            B7
When you're strange 
G                     B7
Faces come out of the rain
B7
When you're strange 
G                     B7
No one remembers your name 
B7
When you're strange 
B7
When you're strange
B7
When you're strange

Комментарий автора:

A7 -0-       B7 -2-
   -2-          -4-
   -0-          -2-
   -2-          -4-
   -0-          -2-
   -0-          -2-

|--3--| indicates the three notes above are tripplets.  If you don't
        read enough music to know this rythum don't worry about it.
        It is not that important.
 
 

Видео