Doors - Riders On The Storm, аккорды

Прокрутка
Тональность
Шрифт
100
Riders On The Storm
The Doors
Tabed by olli 15

This the correct version of the song, alot of people have it all wrong!

Moderatly going song           ~hOLD NOTE
G---------------------------------------------------------
D---------------------------------------------------------
A---2-2------4--------------------------------------------
E-0--3---0-5--5-------------------------------------------

chorus
G----------------------------------------------------------
D----------------------------------------------------------
A---2-2------4---------12-12--------15-15/---5-------------
E-0--3---0-5--5--55/-----------55/---------7---------------     
G----------------------------------------------------------
D----------------------------------------------------------
A---2-2------4-------2-2------4----------------------------
E-0--3---0-5--5----0--3---0-5--5---------------------------

G----------------------------------------------------------
D----------------------------------------------------------
A-5-5~--5-0--5-3-3---5-------------------------------------
E-------------------7--------------------------------------