Doors - Roadhouse Blues, аккорды

Прокрутка
Тональность
Шрифт
100
I learnt this song in band by a cool teacher called Will.

   main riff
E----------------------------------------------------------------------
B----------------------------------------------------------------------
G----------------------------------------------------------------------
D------------------------------------------0h1h2-----------------------
A-------------------0h1h2----------------------------------------------
E--0---0-0--0-0--0---------0--0-0--0-0--0------------------------------

E----------------------------------------------------------------------
B----------------------------------------------------------------------
G-------------------------------------------------0--------------------
D------------------------------------------0h1h2-----2p0h2----0--------
A------------------0h1h2------------------------------------2---2--0---  repeat
E--0--0-0--0-0--0----------0--0-0--0-0--0------------------------------