Doors - Roadhouse Blues, аккорды

Прокрутка
Тональность
Шрифт
100
Intro:
e--------------------------------------------------/
B--------------------------------------------------/
G--------------------------------------------------/
D--------------------------------------------------/
A--------------------------------------------5~6~7-/
E-0--0--0--0--0--0--5~6~7--0--0--0--0--0--0--------/

Verse:
--------------------------------------------------
--------------------------------------------------
--------------------------------------------------
--------------------------------------------------
--------------------------------------------5~6~7-
-0--0--0--0--0--0--5~6~7--0--0--0--0--0--0--------

-----------------------------------/
-----------------------------------/
-----------------------------------/
--------------------------5--------/
-----------------------------7~5~7-/
-0--0--0--0--0--0--5~6~7-----------/

Pre-Chorus:
-------------------------------------------------
-------------------------------------------------
-------------------------------------------------
-------------------------------------------------
----5-----5-----5--------------2-----2-----2-----
-7-----7-----7-----7--6--5--5-----5-----5-----3--

-----------------------------------
-----------------------------------
-----------------------------------
--------------------------5--------
-----------------------------7~5~7-
-0--0--0--0--0--0--5~6~7-----------

Chorus:
------------------------        ------------------
------------------------        ------------------
------------------------        ------------------
------------------------ x6     ------------------
-7--7--7--7--7--7--9--7-        -9-9-9--10--10--9-
-5--5--8--9--5--5--5--5-        -7-7-7--8---8---7-
                                    ! 3 !
                                play this triplet x4

Solo:
-12-15
-12-15
-12-14
-12-14
-12-14
-12-15