Doors - Take It As It Comes, аккорды

Прокрутка
Тональность
Шрифт
100
			The DOORS: Take it as it comes




	G-----------------|----------------|----------------|----------------|
	D---------2-----2-|----5-----------|----------------|----2---2-----2-|
	A-------2-----2---|------2-5---2-5-|----5-0-5-----5-|------2-----2---|
	E-0---3-----------|3---------------|2-----------2---|0---------------|
	  1   2   3   4    1   2   3   4    1   2   3   4    1   2   3   4   
	  Time    to       live,            time    to       lie.
	
							    |----------------|			
	 						    |----2---2---2---|								
		’/.		’/.		’/. 	    |------2---2---2-|
							    |0---------------|
							     1   2   3   4   
	  Time    to       laugh,           time    to       die.


	|----------------|----------------| Play this riff  |----------------|
	|------2---------|----------2-0---| 9x, then 2x :   |----------------|
	|0---3---------0-|------2-------3-|		    |----------------|
	|--------1---1---|0---4-----------|		    |5---5-5-5-------|
	 1   2   3   4    1   2   3   4			     1   2   3   4   

	 Take it easy     baby,
	 take it as it    comes...


   Of course, there may be some mistakes. If you find some of them or if you have comments, 
   please, email: jbenes@czn.cz

                         =========================
				Petr Benes
			  Prague - Czech Republic
			      jbenes@czn.cz
                         =========================