Doors - Tell All The People, аккорды

Прокрутка
Тональность
Шрифт
100
E                             F#7
Tell all the people that you see.
    A       A  E    B7    E
Follow me.  Follow me down.
E                             F#7
Tell all thE people that you see.
      A        A  E    B7    E    
Set them free. Follow me down.
 
G                                 E                       
You tell them they don't have to run.
G                          E    
We're gonna pick up everyone.
G                         D
Come on, take me by my hand
         C                           G    B 
Gonna bury all our troubles in the sand. Oh yeah!
 
E                               F#7
Can't you see the wonder at your feet.
     A               A  E    B7   E
Your lifes complete. Follow me down.
E                                    F#7
Can't you see me growing, get your guns.
               A     A  E    B7    E
The time has come to follow me down.
 
     E
Follow me across the sea where milky babies seem to be
     A                                F#            E
Molded flowing revelry with the one that set them free.
  
E                           F#7
Tell all the people that you see.
         A       A  E    B7 E
It's just me. Follow me down.

Solo:
e--------------------------------------------------------------
b--------------------------------------------------------------
g--14^--14^--1414-1313-1515---------15-13-15-------------------
d----------------------------14/18------------17-17--15--------
a--------------------------------------------------------17-15-
E--------------------------------------------------------------

e-----------------------------------------------------------------
b-----------------------------------------------------------------
g-19b19191919191917-----------------------------------------------
d------------------------19--17--15~---19--17---------------------
a-----------------------------------------------19--17------------
E---------------------------------------------------------19--17~-

E                           F#7
Tell all the people that you see.
           A       A  E B7 E
Follow me. Follow me down.

E                           F#7
Tell all the people that you see.
           A       A  E B7 E
We'll be free. Follow me down.
E                            F#7
Tell all the people that you see
                A       A  E B7 E
It's just me. Follow me down.

E                           F#7
Tell all the people that you see.
            A       A  E B7 E
Follow me. Follow me down.
E                  F#m  A
You got to follow me down,
A  E    B7    E
Follow me down.

E                            F#7
Tell all the people that you see
               A       A  E B7 E
We'll be free. Follow me down.
E                            F#7
Tell all the people that you see
               A       A E B7 E
Follow me!.. You got to follow me down!
 
 

Видео