Doors - Waiting For The Sun, аккорды

Прокрутка
Тональность
Шрифт
100
Into:
(fig. 1)
D|-------5-----5-----------4-----4------------------------------|
G|----7-----7-----7-----5-----5-----5------5--8--5--8-----------|
A|-5-----------------5------------------5---------------5---5-5-|
E|--------------------------------------------------------------|
 
At first flash of Eden
(fig. 2)
D|-------------5------------------4--------------------|
G|-5s/------7-----7------------5-----5------5--8--5--8-|
A|-----5------------------5--------------5-------------|
E|-----------------------------------------------------|

(fig.3)
D|-----------------|
G|-0-0-3--3-0-3--3-|
A|-----------------|
E|-----------------|

Play:
fig.1
fig.2
fig.3
fig.1
fig.3

Waiting for the sun, waiting for the sun, waiting for the sun.
fig.4
D|------------------------        ------------------------|
G|------------------------        ------------------------|
A|-6-------8-------10-10/s repeat 6-------8-------5--5--5-|
E|-----------------------         ------------------------|

fig.1
fig.3
fig.1
fig.3
fig.4

Waiting.........waiting......waiting......waiting....
D|------------------------------------------------------|
G|------------------8--8--8-8-----------------5--5--5-5-|
A|-10--10--10-10-----------------8--8--8-8--------------|
E|------------------------------------------------------|

waiting for you to....come along
D|---                --3---3--3--3--3h5-|
G|-5-adlib these two -------------------|
A|--- positions      -------------------|
E|-3-                -------------------|

repeat this for that little section

This is the strangest.....

D|-----------------------------------------------------|
G|-5--5-5---3--3-3---1--1-1---0--0-0---5--5-5---5--5-5-|
A|-----------------------------------------------------|
E|-----------------------------------------------------|

Repeat fig. 3
Then repeat the first part.
 
 

Видео