Dope - Bitch, аккорды

Прокрутка
Тональность
Шрифт
100
Song: Bitch 
Band: Dope 
CD: Group Theropy 
Tunning: Drop d (D, A, D, G, B, E,) 

intro 
|-------------------------------| 
|-------------------------------| 
|-------------------------------| 
|-1-0---1-0---1-0-1-0-1-0---0 1-| 
|-1-0---1-0---1-0-1-0-1-0---0 1-| 
|-1-0---1-0---1-0-1-0-1-0---0 1-| 

Verse 
|----------| 
|----------| 
|----------| 
|----------| 
|----------| 
|-6/---1-0-| 


Chorus 
|-------------------------------| 
|-------------------------------| 
|-------------------------------| 
|-1-0---1-0---1-0-1-0-1-0---0 1-| 
|-1-0---1-0---1-0-1-0-1-0---0 1-| 
|-1-0---1-0---1-0-1-0-1-0---0 1-|
 
 
Свернуть Распечатать