Dope - Everything Sucks, аккорды

Прокрутка
Тональность
Шрифт
100
Song is easy and im meand damn easy
tuning is DADGBE
drop D pretty much Most of it is palm mute but you can figure which parts arn't
E |------|--------------------|
B |------|--------------------|
G |------|--------------------|
D |-1----|--2--1--4---7-------|
A |-1----|--2--1--4---7-------|
D |-1----|--2--1--4---7-------|
 [ 3 times] this part is weird figure out how many times to do it im to lazy

E |--------------------------|
B |--------------------------| 
G |--------------------------|
D |-1----4---1---------------|
A |-1----4---1---------------|
D |-1----4---1---------------|
THIS PART IS WEIRD RYTHEM

E |--------------------------|
B |--------------------------| 
G |--------------------------|
D |-1--4--11--12-------------|
A |-1--4--11--12-------------|
D |-1--4--11--12-------------|
each one has 2 beats to it 

thnx i knwo its right so just figure the rytme and how many times to play and
you will be all good you dan't have to palm mute but you can if you want

-=TrAvIs=-