Drake - Marvins Room, аккорды

Прокрутка
Тональность
Шрифт
100
Capo On 5th.

e------------------|---------------------------------|
B-0-3-1-0--0-------|---------------------------------|
G--2-----2--2-0-0-2|-Repeat 2x-----------------------|
D--------------2---|---------------------------------|
A------------------|---------------------------------|
E------------------|---------------------------------|

e---0-0-0-3--|---------------------------------------|
B---1-3-1-3--|---------------------------------------|
G---2-4-2-0--|-Add Own Rhythm And Style -------------|
D---3-5-2-0--|---------------------------------------|
A---3-5-0-2--|---------------------------------------|
E---0-0-0-3--|---------------------------------------|
 
 

Видео