Drake - Forever (solo), аккорды

Прокрутка
Тональность
Шрифт
100
e|-----6------------------6------------------------------|
b|--------8--6--------6----8--6--------6--8--6-----------|
g|--5-----------8--5--------------8--5------------- -----|
d|-------------------------------------------------------|
a|-------------------------------------------------------|
E|-------------------------------------------------------|

e|-----6-----------------------4-----------------------|
b|--------8--6--------6--4--8-----8--6--4--5--6--------|
g|--5-----------8--5-----------------------------------|
d|-----------------------------------------------------|
a|-----------------------------------------------------|
E|-----------------------------------------------------|

e|-----6--------------------6--------------------6------|
b|--------8--6--------6--8-----8--6--------6--8---------|
g|--5-----------8--5-----------------8--5---------------|
d|------------------------------------------------------|
a|------------------------------------------------------|
E|------------------------------------------------------|

e|--6-----------------------4---------------------------|
b|-----8--6--------6--4--8-----8--6--4--5--6------------|
g|-----------8--5---------------------------------------|
d|------------------------------------------------------|
a|------------------------------------------------------|
E|------------------------------------------------------|
 
 

Видео