Drake - Trust Issues, аккорды

Прокрутка
Тональность
Шрифт
100
The entire song is just the following riff repeated over and over:
Bm D F# E

All I care about is money and the City that I'm from,
e|----2--------------------------5-------------------------------------------|
B|----3--------------------------6-------------------------------------------|
G|----4--------------------------7-------------------------------------------|
D|----4--------------------------7-------------------------------------------|
A|----2--------------------------5-------------------------------------------|
E|----X--------------------------X-------------------------------------------|

I'm a sip it till I feel it, I'ma smoke it till it's done.
e|---9---------------------------7-------------------------------------------|
B|---10--------------------------8-------------------------------------------|
G|---11--------------------------9-------------------------------------------|
D|---11--------------------------9-------------------------------------------|
A|---9---------------------------7-------------------------------------------|
E|---X---------------------------X-------------------------------------------|

I don't really give a f--- if my excuse is that I'm young,
e|----2--------------------------5-------------------------------------------|
B|----3--------------------------6-------------------------------------------|
G|----4--------------------------7-------------------------------------------|
D|----4--------------------------7-------------------------------------------|
A|----2--------------------------5-------------------------------------------|
E|----X--------------------------X-------------------------------------------|

And I'm only getting older, somebody should have told you, I'm on one.
e|---9---------------------------7-------------------------------------------|
B|---10--------------------------8-------------------------------------------|
G|---11--------------------------9-------------------------------------------|
D|---11--------------------------9-------------------------------------------|
A|---9---------------------------7-------------------------------------------|
E|---X---------------------------X-------------------------------------------|

Комментарий автора:

For a soul/funk style, strum down with you thumb on A (5th string) 
and pluck the D G and B strings (4th, 3rd, and 2nd strings, 
respectively) at the same time. 
(same as the tabs above, just without the e and E strings).
 
 

Видео