Drake - Over My Dead Body, аккорды

Прокрутка
Тональность
Шрифт
100
Tuning:D# G# C# F# A# D# -half step down

--5--5--0--0---------------------------------------------|
--3--5--2--3---------------------------------------------|
--4--6--2--4---------------------------------------------|
--5--7--0--5---------------------------------------------|
-----0---------------------------------------------------|
-----------0---------------------------------------------|

----------17--------------------------------------------|
-------15-----------------------------------------------|
----18--------------------------------------------------|
-19-----------------------------------------------------|
--------------------------------------------------------|
--------------------------------------------------------|

----------17-------------17-----------------------------|
-15-14-15----14-15-14-15--------------------------------|
----------------------------16--------------------------|
--------------------------------------------------------|
--------------------------------------------------------|
--------------------------------------------------------|

Pretty much this all the way through
 
 

Видео