Drake - I'm Goin' In, аккорды

Прокрутка
Тональность
Шрифт
100
e|---------------------------------------------------------------------------|
B|---------------------------------------------------------------------------|
G|---------------------------------------------------------------------------|
D|---------------------------------------------------------------------------|
A|-4-4-----------------2-2---------------------------------------------------|
E|------5-5--4-4--2-2-------5-5--4-4--2-2------------------------------------|

e|---------------------------------------------------------------------------|
B|---------------------------------------------------------------------------|
G|---------------------------------------------------------------------------|
D|---------------------------------------------------------------------------|
A|-4-4-----------------2-2---------------------------------------------------|
E|------5-5--4-4--2-2-------5-5--4-4--2-2------------------------------------|

e|---------------------------------------------------------------------------|
B|---------------------------------------------------------------------------|
G|---------------------------------------------------------------------------|
D|---------------------------------------------------------------------------|
A|-5-5-----------------2-2---------------------------------------------------|
E|------5-5--4-4--2-2-------5-5--4-4--2-2------------------------------------|

e|----------------------------------------------------------------------------|
B|----------------------------------------------------------------------------|
G|----------------------------------------------------------------------------|
D|----------------------------------------------------------------------------|
A|-5-5-----------------2-2----------------------------------------------------|
E|------5-5--4-4--2-2-------5-5--4-4--2-2-------------------------------------|
Repeat until end of song.
 
 

Видео