Drake - Headlines, аккорды

Прокрутка
Тональность
Шрифт
100
Intro:
E|---------------------------------------------------------------------|
B|---------------------------------------------------------------------|
G|---------------------------------------------------------------------|
D|-----4-----4---------6-----6----------7------7------7------7-----6---| repeat until verse
A|---5-----5-----5---7-----7-----7----9------9------9------9-----7---7-|
E|-7-----7-----7---9-----9-----9---10-----10-----10-----10-----9-------|

Verse:
E|------------------------------------------------------------------------------|
B|------------------------------------------------------------------------------|
G|------------------------------------------------------------------------------|
D|-4---(7)---4-----------------6---(6)---6-----------------7---(7)---7----------|
A|-5---(5)---5-----------------7---(7)---7-----------------9---(9)---9----------|
E|-7---(4)---7--7--7--7--7-----9---(9)---9--9--9--9--9-----10--(10)--10--10--10-|
                                               
E|-----------------------------------------------------------------------------|
B|-----------------------------------------------------------------------------|
G|-----------------------------------------------------------------------------|
D|-7-----------7---------------6-6-6-6-----------------------------------------|
A|-9-----------9---------------7-7-7-7-----------------------------------------|
E|-10--10--10--10--10--10------9-9-9-9-----------------------------------------|

When you arrive at the chorus, you can either choose between 
the intro riff or the verse riff, or mix it up.

Комментарий автора:

()=Palm mute
 
 

Видео