Drake - Find Your Love, аккорды

Прокрутка
Тональность
Шрифт
100
Tuning: Standard

e|-----------------------------------------------------------------------------|
B|-----------------------------------------------------------------------------|
G|-2-1-1-1-2-1-------1------2-1-1-1-2-1-------1------2-1-1-1-2-1-------1-------|
D|-------------4--2-----4---------------4--2-----2---------------4--2-----4----|
A|-----------------------------------------------------------------------------|
E|-----------------------------------------------------------------------------|

e|------------------0-----------------0--------------0-----------------------|
B|--------------------2-0------0-2------2-0------------2-0------0-2----------|
G|-2-1-1-1-2-1-------------2-2--------------2-2-------------2-2--------------|
D|-------------4--------------------------------4-2--------------------------|
A|---------------------------------------------------------------------------|
E|---------------------------------------------------------------------------|


e|-0-----------------0-----------------------0-0---------------------0-------|
B|---2-0---------------2-0-----0-2---------------2----3-2-0------2-0---2-----|
G|-------2-2---------------2-2------2-2-2--2---------2------2----------------|
D|------------4-2---------------------------------------------4--------------|
A|---------------------------------------------------------------------------|
E|---------------------------------------------------------------------------|


e|---------------------------------------------------------------------------|
B|-2-2-0-0-------------------------------------------------------------------|
G|---------2-1---------------------------------------------------------------|
D|-------------4-4-----------------------------------------------------------|
A|---------------------------------------------------------------------------|
E|---------------------------------------------------------------------------|

Cmaj7: x32003
G/B:  x20030

Capo 2


Em  D           Em    D
 I'm more than just an option, Hey, Hey
 Em   D         Em   D
 Hey, Refuse to be forgotten Hey, Hey
 Em   D            Em     D
 Hey, I took a chance with my heart Hey, Hey
 Em      D         Em
 Hey, and I feel it taking over

Chorus:
 G           Am7                  D
I better find your love and, I better find your heart
             Am7                  D
I better find your love and, I better find your heart
             Cmaj7                D
I better find your love and, I better find your heart
 Em7   G    Am           G/B               Em
I bet if I give all my love, then nothing's gonna tear us apart

   D           Em   D
 I'm more than just a number Hey, Hey
 Em   D            Em   D
 Hey, I doubt you'll find another Hey, Hey
 Em    D        Em   D
 Hey, So every single summer Hey, Hey
 Em        D         Em
 Hey, I be the one that you remember

Chorus

Em   D           Em    D
 It's more than just a mission Hey, Hey
 Em     D            Em   D
 Hey, You hear but you don't listen Hey, Hey
 Em     D       Em     D
 Hey, You better pay attention Hey, Hey
 Em     D           Em
 Hey, And get what you been missing

Chorus

Bridge:
Am7     D          Am7
 Too many times I've been wrong
          D          Am7
 I guess being right takes too long
                  D          Em7
 I'm done waiting, there's nothing left to Do
 G     Am7       D
 But give all I have to you and

Chorus:
              Am7     D
 I better find your love and
              Am7     D
 I better find your heart
              Cmaj7   D
 I better find your love and
  Em7   G    Am           G/B               Am7 D
 I bet if I give all my love, then nothing's gonna tear us apart

Am7 D Cmaj7 D

  Em7   G    Am           G/B               Am7 D
 I bet if I give all my love, then nothing's gonna tear us apart

Am7 D Cmaj7 D
 
 

Видео