Dream Theater - Led Zeppelin Medley, аккорды

Прокрутка
Тональность
Шрифт
100
           the rover/Achilles last Stand/the Song remains The same

          AGUSTIN FRANCI .Bs.As. Argentina

   By : DREAM THEATER  From: A Change of Season
   original by : led Zeppelin
   Transcribed by AGUSTIN FRANCI
   tabbed by : AGUSTIN FRANCI
   E-Mail : fmatias@cvtci.com.ar


  {drum.................}
  |---------------------------|----------------------------|
  |---------------------------|----------------------------|
4 |-------------------------9-|-9--9-----------------------|
4 |-------------------------9-|-9--9-----------------------|
  |-------------------------7-|-7--7-----------------------|
  |---------------------------|----------------------------|

  semi-harm.-----------|
 |------------------------------|-------------------------|
 |------------------------------|--10--9-----10--9--------|
 |------------------------------|---9--9------9--9--------|
 |------------------------------|---9--9------9--9--------|
 |-----------------------5-h-7--|---7--7------7--7--------|
 |--3--3--5--5--3--5--3---------|-------------------------|
   
 |----------0------------------|
 |----------0------------------|
 |---9-------------------------|
 |---9-------------------------|
 |---7-------------------------|
 |-----------------------------|

 |------------------------------|-----------0--------------------------|
 |------------------------------|-------------3p0----------------------|
 |------------------------------|----(2b