Dropkick Murphys - Do Or Die, аккорды

Прокрутка
Тональность
Шрифт
100
Dropkick Murphys - Do or Die
Transcripted By: Billman85@hotmail.com

Intro:
G|---------------------------------------------------------------------------|
D|-7-7-7-7-7-7-7-7-7-7-7-7-7-7-7-7-7-9---------------------------------------|
A|---------------------------------------------------------------------------|
E|---------------------------------------------------------------------------|

Verse:Play w/ chordes, its dkm, you know the drill.
G|---------------------------------------------------------------------------|
D|---------------------------------------------------------------------------|
A|-----------5---------------------------------------------------------------|
E|-5555-0000---5-0000--------------------------------------------------------|

Chorus:
G|---------------------------------------------------------------------------|
D|---------------------------------------------------------------------------|
A|-----------5---7777------5555-77777777-------------------------------------|
E|-7777-5555---5------7777---------------------------------------------------|====
 
 

Видео