Drowning Pool - Tear Away, аккорды

Прокрутка
Тональность
Шрифт
100
Drop C Tuning (CGCFAD)

Intro: Distortion w/ Flanger, or light Phaser]
D|--------------------------------|
A|--------------------------------|
F|--8-8-8-8-8/7-------------------|
C|--x-x-x-x-x/x-------------------|
G|--6-6-6-6-6/5--0-0--0--0-0-0--0-|
C|---------------0-0--0--0-0-0--0-|
pm               . .  .  . . .  . 

Riff 1: Heavy Distortion
D|-----------------------------------------------------------------------------|
A|-----------------------------------------------------------------------------|
F|--14-14--14-14--14-14--14-14-14/12-12-12-12-12-12/11-11--11-11--11-11/7--7---|
C|---x--x---x--x---x--x---x--x--x--x--x--x--x--x--x--x--x---x--x---x--x-x--x---|
G|--12-12--12-12--12-12--12-12-12/10-10-10-10-10-10/-9--9---9--9---9--9/5--5---|
C|---0--0---0--0---0--0---0--0--0--0--0--0--0--0--0--0--0---0--0---0--0-0--0---|

Riff 2: Heavy Distortion
D|-----------------------------------------|
A|-----------------------------------------|
F|--------------------8-8-8-8-8/7----------|
C|--------------------x-x-x-x-x/x----------|
G|-0-0--0-0-000--0-0--6-6-6-6-6/5----------|
C|-0-0--0-0-000--0-0-----------------------|
pm . .  . . ...  . .

Chorus Riff: Heavy Distorion
F|--------7-7-----7-7-7--------7-7-7-7-7-7--|
C|--0-0-0-x-x-0-0-x-x-x--8-8-8-5-5-5-5-5-5--|
G|--0-0-0-5-5-0-0-5-5-5--8-8-8-5-5-5-5-5-5--|
C|--0-0-0-0-0-0-0-0-0-0--8-8-8-5-5-5-5-5-5--|

Interlude Riff: Heavy Distortion and Stacatto Picking
C|--1-0--1-0--1-0----1-0--1-0--1-0---|
G|--1-0--1-0--1-0----1-0--1-0--1-0---|
C|--1-0--1-0--1-0----1-0--1-0--1-0---|

Solo: Distortion and Wah Pedal] Tremelo pick when neccesary, and vibrato accenting too
D|----------------------------------------------------------------|
A|-------------------------------------------------13br-13br-13br-|
F|--514--12--15--14--14h15p14-------------------------------------|
C|------------------------------15-14/12-10--13-12----------------|
G|----------------------------------------------------------------|
C|----------------------------------------------------------------|
   
D|----------------------------------------------------------|
A|----------------------------------------------------------|
F|-12--13-12-13-12-13-12------------------------------------|
C|-----------------------13-12---10-11-10-11-10-11-10/6/5---|
G|----------------------------------------------------------|
C|----------------------------------------------------------|

Outro: Clean w/ Flanger and delay]       |This part 1st time only
F|--------7-----------7----------------7-|-------|
C|------0---0-------0---0------8-----5---|-5-----|
G|----5-------5---5--------8-8-----5-----|---5---|
C|-0------------0----------8-----5-------|-----5-|
 
 
Свернуть Распечатать

Видео