Dry Cell - Body Crumbles, аккорды

Прокрутка
Тональность
Шрифт
100
     Dry Cell - Body Crumbles

INTRO:
E|---------------------------------------------------------------
B|---------------------------------------------------------------
G|---------------------------------------------------------------
D|--0---0--0--2--3--2h3h0-----2----3--2--0-----------------------
A|----0--------------------0-----0-------------------------------
E|---------------------------------------------------------------

E|---------------------------------------------------------------
B|---------------------------------------------------------------
G|---------------------------------------------------------------
D|--0---0--0--2--3--2h3h0---3--3h5--3--2-2h3h0-------------------
A|----0----------------------------------------------------------
E|---------------------------------------------------------------
 
 

Видео