Dry Cell - Body Crumbles, аккорды

Прокрутка
Тональность
Шрифт
100
Real version of dry cell - body crumbles for the bass
Headless_duck77


easy 
h= hammer on
p= pull off
G:--6--6-6h8-8h9-8----9---9-8--
D:---6-------------9-7--6-----9
A:-----------------------------
E:-----------------------------

G:--6--6-6h8-8h9-8---9-9h11-8-9-9p8-
D:---6-------------9---------------9
A:----------------------------------
E:----------------------------------
 
 

Видео