Dry Cell - Body Crumbles, аккорды

Прокрутка
Тональность
Шрифт
100
Listen to the song for timings and order.

Intro/Verse
       ||
       /two elevens
G-------------------------------------
D--11--11 11h13-14-13------14--14-13---
A----11--------------14-12--11------14
C#------------------------------------


G---------------------------------------------
D--11--11-11h13-14-13--14-16-13 14p13h14p13---
A----11--------------14--------------------14-
C#--------------------------------------------


little part before Chorus
G---------------------------------
D--11--11-11h13-14-13-------------
A----11--------------14--16~------
C#--------------------------------


Chorus
G-------------------------------------
D-------------------------------------
A--4-666666---222222-4-666666---222222
C#----------3-----------------3-------


bridge/break down
G---------------------------------
D---------------------------------
A--0-0-0-0------------------------
C#---------3-3-3-3-0-0-0-0-0-0-0-0     

email me if any thing is screwed up paparoach15@msn
 
 

Видео