Дворовые песни - Мечта, аккорды

Прокрутка
Тональность
Шрифт
100
Проигрыш: (так же играть в куплете)
Am                                          F или  Am
|------------------------------------|---— —----------------------------| 1   с
|-----1---0---1---3---1---0---1------|-----1---0---1---3---1-— 0---1----| 2   т
|---2---2---2---2---2---2---2---2----|---2---2---2---2---2---2---2---2--| 3   р
|------------------------------------|-----------------— —--------------| 4   у
|-0----------------------------------|-3--------------------------------| 5   н
|------------------------------------|----------------------------------| 6    

G                                            Am 
|---------3---1---0-----------------|----------------------------------|
|-----0-----------------3---1---0---|------1---0---1---3---1- —1---1---| 
|---0---0---0---0---0----0---0---0--|----2---2---2---2---2---2---2---2-| 
|-----------------------------------|----------------—-- —-------------|
|-----------------------------------|-0--------------------------------| 
|-3---------------------------------|---—-—----------------------------|

Am
В полумраке на столе бумаги лист лежит,
F
Дрожь в руке и след карандаша, за чем бежит,
G
Не догнать ему потока мутного реки,
Am
Приглушая сердце, разрывает на куски,
Am
Солнце пляшет, мы с тобой вдвоём наедине,
F
Освежиться в речки бурной предложила мне,
G
Я не знал, что так бывает, отошёл всего на миг,
Am
Было поздно, я услышал лишь последний крик,

F          G                 Am
Не помогут слёзы, не вернуть обратно,
F                         G
Я не буду плакать, даже если надо.

(В 2-х последних строчках каждого куплета:)
 
F                        G       Am
Не помогут слёзы, не вернуть обратно,
F           G     (далее припев, боем) 
Я не буду плакать, даже если надо.

F                         G                      Am 
|---------1---------|---------3--------|------------------------------------| 
|-----1-----1---3---|-----3-----3---3--|-------1---0---1---3-— 1---0---1----| 
|---2---2-----2-----|---0---0-----0----|------2---2---2---2---2---2---2---2-| 
|-------------------|------------------|----------— —-----------------------| 
|-3-----------------|------------------|-0----------------------------------| 
|-------------------|-3-----------—----|------------------------------------| 

F                        G 
|---------1--------|----------3-------| 
|-----1-----1---1--|------3-----3---3-| 
|---2---2-----2----|----0---0-----0---| 
|----------------—-|-—----------------| 
|------------------|------------------|
|-3----------------|-3----------------|

Припев:
Am       F                      G
Просто мечта одна была, чтобы просто ты жила,
                                   E
И чтобы жизнь твоя дотла не сгорела никогда,
Am       F                      G
Но злой судьбы твоей каприз, все желанья не сбылись,
                                   E
Все мечты твои о том, как построен дом…
F                                    G
В котором будем жить и ты и я, и ты и я,
F                                   G
В котором всё, и даже воздух для тебя… НЕТ…
 
Проигрыш: Am F G Am

Am
День четвёртый, КПЗ, решётка, темнота,
F
Молодой сержант и беспонтовые слова,
G
Мне не надо объяснять, я понял всё без слов,
Am
Просто это наказанье за мою любовь,
Am
Просто с первых дней твой папа не любил меня,
F
И не раз меня встречали папины друзья,
G
А теперь судья знакомый папин как назло,
Am
Что сказать судьбе в глаза: «Ну, что ж, не повезло».

(В 2-х последних строчках каждого куплета:)
 
F                        G       Am
Не помогут слёзы, не вернуть обратно,
F           G     (далее припев, боем) 
Я не буду плакать, даже если надо.

F                         G                      Am 
|---------1---------|---------3--------|------------------------------------| 
|-----1-----1---3---|-----3-----3---3--|-------1---0---1---3-— 1---0---1----| 
|---2---2-----2-----|---0---0-----0----|------2---2---2---2---2---2---2---2-| 
|-------------------|------------------|----------— —-----------------------| 
|-3-----------------|------------------|-0----------------------------------| 
|-------------------|-3-----------—----|------------------------------------| 

F                        G 
|---------1--------|----------3-------| 
|-----1-----1---1--|------3-----3---3-| 
|---2---2-----2----|----0---0-----0---| 
|----------------—-|-—----------------| 
|------------------|------------------|
|-3----------------|-3----------------|

Припев:
Am       F                      G
Просто мечта одна была, чтобы просто ты жила,
                                   E
И чтобы жизнь твоя дотла не сгорела никогда,
Am       F                      G
Но злой судьбы твоей каприз, все желанья не сбылись,
                                   E
Все мечты твои о том, как построен дом…
F                                    G
В котором будем жить и ты и я, и ты и я,
F                                   G
В котором всё, и даже воздух для тебя… НЕТ…
 
 

Видео