Дворовые песни - Я зашел просто так, аккорды

Прокрутка
Тональность
Шрифт
100
Intro:
E|---7-----8-----7----------3-----5-----3---
B|-----0-----0-----0----------0-----0-----0-
G|-------0-----0----------------0-----0-----
D|------------------------------------------
A|---7-----7-----7----------3-----3-----3---
E|------------------------------------------
 
----5-----7-----5----------2-----3-----2----
------0-----0-----0----------0-----0-----0--
--------0-----0-----------------0-----0-----
--------------------------------------------
----5-----5-----5----------2-----2-----2----
--------------------------------------------

E|-7-----8-----7--------5-----7-----5------
B|---0-----0-----0--------0-----0-----0----
G|-----0-----0--------------0-----0--------
D|-----------------------------------------
A|-7-----7-----7--------5-----5-----5------
E|-----------------------------------------

--3-----5-----3----------2-----3-----2-2-2-
----0-----0-----0----------0-----0---------
-------0-----0---------------0-------------
-------------------------------------------
--3-----3-----3----------2-----2-----0-0-2-
-------------------------------------------   

E|-----2-----3-----2-2-2-----3----5-0---2--
B|-------0-----0----------0-----0----------
G|---------0----------------0-----0--------
D|-----------------------------------------
A|-----2-----2-----0-0-2-----2----------2--
E|-----------------------------------------

-----5-0---2---3-----2-----3-2-------------
---0----------0----------3-----------------
-----0----------0----------0---------------
-------------------------------------------
-----------3---3-----2-----2-2-------------
-------------------------------------------

Em C9
Я зашел просто так, в этот вечер к тебе
Am B7
Просто холодно стало, этим вечером мне,
Em C9
А я знал, что и ты в этом доме живешь,
Am B7
А я шел и твердил, что меня ты поймешь…

C D Em
Я зашел, позвонил, мне супруг твой открыл
C D Em
Извините, сказал, что друзьям помешал.
C D Em
И обоим смущенно я ладони пожал,
C D Em
А твою, почему-то на миг задержал…

Em C9
У тебя сразу вдруг, заблестели глаза,
Am B7
А супруг все смотрел на тебя на меня,
Em C9
Он не знал, что давно, совсем до него
Am B7
Вот за этим столом был хозяином я,

C D Em
Я зашел, позвонил, мне супруг твой открыл
C D Em
Извините, сказал, что друзьям помешал.
C D Em
И обоим смущенно я ладони пожал,
C D Em
А твою, почему-то на миг задержал…

Em C9
И улыбка твоя, озарила меня
Am B7
И ты вовсе была не его а моя…  
 
 

Видео