Дворовые песни - Наркоман, аккорды

Прокрутка
Тональность
Шрифт
100
Вступление 1:
3|-----------------------------------------------------
4|------3-2-0---------------0--0-2-3-5-3-2-2-3-2-------
5|--0-0-------3-0--0-3-2-0-----------------------3-2-0-
6|-----------------------------------------------------

Соло:
1|-8--8-8-7-8-10-8-8-7-5-5-3-1-12-12-12-10-8--8-12-10-8-12-10--13-12-10-8-7-8-7-

Вступление 2:
   Am         F          Dm         E
e|----0-----0-----0---1-----1-----1---1-----1-----1---0-----0-----0-|
B|------1-----1---------1-----1---------3-----3---------0-----0-----|
G|--------2-----2---------2-----2---------2-----2---------1-----1---|
D|------------------------------------------------------------------|
A|--0---------------3---------------0---------------2---------------|
E|------------------------------------------------------------------|

   Am         F          Dm         E          
e|----0-----0-----0---1-----1-----1---1---1-3-1-0-----0-----0-----0-| 
B|------1-----1---------1-----1---------3---------3-----0-----0-----|  
G|--------2-----2---------2-----2-------------------------1-----1---|   
D|------------------------------------------------------------------| x2 
A|--0---------------3---------------0---------------2---------------|  
E|------------------------------------------------------------------| 

Куплет:
   Am         F          Dm         E          
e|----0-----0-----0---1-----1-----1---1---1-3-1-0-----0-----0-----0-|
B|------1-----1---------1-----1---------3---------3-----0-----0-----|
G|--------2-----2---------2-----2-------------------------1-----1---| 
D|------------------------------------------------------------------|
A|--0---------------3---------------0---------------2---------------|
E|------------------------------------------------------------------|

 Am        F              Dm E7             Am 
1)Я уже не буду больше летать на крыльях любви 
 Am        F              Dm E7           Am 
Я перестану по ночам спать в том виновата ты 
 Am        F              Dm E7         Am 
Я постараюсь тебя забыть, но это самообман 
 Am        F              Dm E7             Am 
Я только что пытался память залить в голове стоит пьяный 

Припев:
 Am        F         Dm E7 Am 
И снова выпивка не лезет в рот 
 Am        F         Dm E7 Am 
И снова я забиваю косяк 
 Am        F         Dm E7 Am 
Да в этой речке существует брод 
 Am        F         Dm E7 Am 
Но этот брод не для меня 
 Am        F         Dm E7 Am 
Я рассыпаю перед собой план 
 Am        F         Dm E7 Am 
Я наливаю еще 200 грамм 
 Am        F        Dm E7 Am 
Я выпиваю, курю и лечу 
 Am        F        Dm E7 Am 
Куда лечу не знаю и сам 

 Am        F         Dm E7 Am 
2)Ты перестала ко мне приходить 
 Am        F         Dm E7 Am 
Ты стала избегать со мной встреч 
 Am        F         Dm E7 Am 
Ты не желаешь мне звонить… 
 Am        F         Dm E7 Am 
Зато за ним ты бежишь как дитя 
 Am        F         Dm E7 Am 
Когда идет он под руку с другой 
 Am        F         Dm E7 Am 
А мне почти плевать на тебя 
 Am        F         Dm E7 Am 
Я развернусь и пойду домой 

Припев:
 Am        F         Dm E7 Am 
И снова выпивка не лезет в рот 
 Am        F         Dm E7 Am 
И снова я забиваю косяк 
 Am        F         Dm E7 Am 
Да в этой речке существует брод 
 Am        F         Dm E7 Am 
Но этот брод не для меня 
 Am        F         Dm E7 Am 
Я рассыпаю перед собой план 
 Am        F         Dm E7 Am 
Я наливаю еще 200 грамм 
 Am        F        Dm E7 Am 
Я выпиваю, курю и лечу 
 Am        F        Dm E7 Am 
Куда лечу не знаю и сам 

Соло:
1|-8--8-8-7-8-10-8-8-7-5-5-3-1-12-12-12-10-8--8-12-10-8-12-10--13-12-10-8-7-8-7-

 Am        F         Dm E7 Am 
3)Да, алкоголик я и наркоман 
 Am        F         Dm E7 Am 
Уже ни раз игла касалась руки 
 Am        F         Dm E7 Am 
Хотя посмотрим правде в глаза 
 Am        F         Dm E7 Am 
Я никогда ведь не был таким 
 Am        F         Dm E7 Am 
Успокоенье искала душа 
 Am        F         Dm E7 Am 
Нашла легкий и губительный путь 
 Am        F         Dm E7 Am 
Теперь игла, водка и анаша меня погубят когда-нибудь 

Припев:
 Am        F         Dm E7 Am 
И снова выпивка не лезет в рот 
 Am        F         Dm E7 Am 
И снова я забиваю косяк 
 Am        F         Dm E7 Am 
Да в этой речке существует брод 
 Am        F         Dm E7 Am 
Но этот брод не для меня 
 Am        F         Dm E7 Am 
Я рассыпаю перед собой план 
 Am        F         Dm E7 Am 
Я наливаю еще 200 грамм 
 Am        F        Dm E7 Am 
Я выпиваю, курю и лечу 
 Am        F        Dm E7 Am 
Куда лечу не знаю и сам 

 Am        F         Dm E7 Am 
И снова сердце пробьет игла 
 Am        F         Dm E7 Am 
И снова водка зальется в грудь 
 Am        F     Dm E7 Am 
И умирая кричит душа 
 Am        F         Dm E7 Am 
Пытаясь воплями жизнь вернуть 
 Am        F         Dm E7 Am 
Но с каждым днем все мутнее глаза 
 Am        F       Dm E7 Am 
И замирает сердца стук 
 Am        F         Dm E7 Am 
И с глаз срывается последняя слеза 
 Am        F       Dm E7 Am 
И выпадает гитара из рук
 
 

Видео