Ed Sheeran - Tenerife Sea, аккорды

Прокрутка
Тональность
Шрифт
100
Intro: x1 
e|-----------------------------------------------------| 
B|---------0-----------0--------------0h2p0-------0----| 
E|-----0-----------0-----------0---0----------0--------| 
D|---2---2-------4---4-------2---2----2---------2------| x3 
A|-------------------------0---------------------------| 
E|-0-----------2---------------------------------------| 
 
e|-----------------------------------------------------------------------| 
B|---------0-----------0-----------------------------------------------0-| 
E|-----0-----------0-------------0-----------0-----------0-----------0---| 
D|---6---6-------4---4---------2---2-------2---2-------2---2-------2-----| 
A|-4-----------2-----------0-----------0-----------0-----------0---------| 
E|-----------------------------------------------------------------------| 
 
Verse 1: x1 (You look so wonderful in your dress) 
e|-----------------------------------------------------| 
B|---------0-----------0--------------0h2p0------0-----| 
E|-----0-----------0-----------0---0--------0----------| 
D|---2---2-------4---4-------2---2------------2--------| x2 
A|-------------------------0---------------------------| 
E|-0-----------2---------------------------------------| 
 
e|-------------------------------------------------| 
B|---------0-----------0-------------0-----------0-| 
E|-----0-----------0-------------0-----------0-----| 
D|---2---2-------4---4---------2---2-------2---2---|  
A|-------------------------0-----------0-----------| 
E|-0-----------2-----------------------------------| 
 
e|-------------------------------------------------| 
B|---------0-----------0-------------------------0-| 
E|-----0-----------0-------------0-----------0-----| 
D|---6---6-------4---4---------2---2-------2-------| 
A|-4-----------2-----------0-----------0-----------| 
E|-------------------------------------------------| 
 
e|-------------------------------------------------| 
B|---------0-----------0-----------0----------0----| 
E|-----0-----------0-----------0----------0--------| 
D|---2---2-------4---4-------2---2------2---2------|  
A|-------------------------0----------0------------| 
E|-0-----------2-----------------------------------| 
 
e|-----------------------------------------------------| 
B|---------0-----------0--------------0h2p0------0-----| 
E|-----0-----------0-----------0---0--------0----------| 
D|---2---2-------4---4-------2---2------------2--------|  
A|-------------------------0---------------------------| 
E|-0-----------2---------------------------------------| 
 
e|-------------------------------------------------| 
B|---------0-----------0-----------0----------0----| 
E|-----0-----------0-----------0----------0--------| 
D|---2---2-------4---4-------2---2------2---2------|  
A|-------------------------0----------0------------| 
E|-0-----------2-----------------------------------| 
 
e|-----------------------------------------------| 
B|---------0-----------0-------------------------| 
E|-----0-----------0-------------0-----------0---| 
D|---6---6-------4---4---------2---2-------2---2-| 
A|-4-----------2-----------0-----------0---------| 
E|-----------------------------------------------| 
 
Pre-chorus 1: x1 (Should this be the last thing I see) 
e|-------------------------------------------------| 
B|----------0-----------0-----------0------------0-| 
E|------0-----------0-----------0-----------0------| 
D|----2---2-------2---2-------2---2-------4---4----| x2 
A|-0-----------0-----------2-----------2-----------| 
E|-------------------------------------------------| 
 
e|-------------------------------------------------| 
B|----------0-----------0-----------0------------0-| 
E|------0-----------0-----------0-----------0------| 
D|----2---2-------2---2-------2---2-------2---2----|  
A|-0-----------0-----------2-----------2-----------| 
E|-------------------------------------------------| 
 
e|----------------------| 
B|----------------------| 
E|---0----0----0----0---| 
D|-----4----4----4------| 
A|-2--------------------| 
E|----------------------| 
 
Chorus 1: x1 (I'm So in love) 
e|-----------------------------------------------------| 
B|---------0-----------0--------------0h2p0------0-----| 
E|-----0-----------0-----------0---0--------0----------| 
D|---2---2-------4---4-------2---2------------2--------| x3 
A|-------------------------0---------------------------| 
E|-0-----------2---------------------------------------| 
 
e|------------------------------------------------| 
B|---------0------------0----------------------0--| 
E|-----0-----------0-------------0-----------0----| 
D|---2---2-------4---4---------2---2-------2------| 
A|-------------------------0-----------0----------| 
E|-0-----------2----------------------------------| 
 
Verse 2: Repeat Verse 1  
 
Pre-chorus 2: Repeat Pre-chorus 1 
 
Chorus 2: x1  
e|-----------------------------------------------| 
B|----------0-----------0------------0h2p0-------| 
E|-0----0----------0-----------0---0-------0---0-| 
D|-2--2---2------4---4-------2---2-----------2---|  
A|-2-----------------------0---------------------| 
E|-0-----------2---------------------------------| 
 
e|-----------------------------------------------------| 
B|---------0-----------0--------------0h2p0------0-----| 
E|-----0-----------0-----------0---0--------0----------| 
D|---2---2-------4---4-------2---2------------2--------| x2 
A|-------------------------0---------------------------| 
E|-0-----------2---------------------------------------| 
 
e|-------------------------------------------------| 
B|---------0------------0-----------------------0--| 
E|-----0-----------0-------------0-----------0-----| 
D|---2---2-------4---4---------2---2-------2-------| 
A|-------------------------0-----------0-----------| 
E|-0-----------2-----------------------------------| 
 
Bridge: (Lumiere...) Repeat this segment 3x 
e|---------------------------------------------------------------------------| 
B|-------0--------0--------0--------0--------0---------0---------0---------0-| 
E|-----0--------0--------0--------0--------0---------0---------0---------0---| 
D|---6--------6--------2--------2--------4---------4---------2---------2-----| 
A|-4--------4--------0--------0--------2---------2---------0---------0-------| 
E|---------------------------------------------------------------------------| 
 
e|---------------------------------------------------------------------------| 
B|-------0--------0--------0--------0--------0---------0---------0---------0-| 
E|-----0--------0--------0--------0--------0---------0---------0---------0---| 
D|---6--------6--------2--------2--------4---------4---------4---------4-----| 
A|-4--------4--------0--------0--------2---------2---------2---------2-------| 
E|---------------------------------------------------------------------------| 
 
Pre-chorus 3:  
e|---------------------------------------------------------------------| 
B|---------------------------------------------------------------------| 
E|---0----------------2------0----------------2---------0--------------| 
D|---2-------2--------4------2--------2-------4---------2--------2-----|  
A|---0-------2--------2------0--------2-------2---------0--------2-----| 
E|-----------0------------------------0--------------------------0-----| 
   Should....Last.....See...Want.....Enough...Me........All.....is all 
 
e|---------------------| 
B|---------------------| 
E|----0---0---0---0----| 
D|------4---4---4------|  
A|-2-------------------| 
E|---------------------| 
   Need... 
 
Chorus 3:  
e|---------------------------| 
B|---9--9--7--7--5--5--5--5--| 
E|--0--0--0--0--0--0--0--0---| x3 
D|-6--6--4--4--2--2--2--2----| 
A|---------------------------| 
E|---------------------------| 
 
 
e|------------------| 
B|---9--9--7--7-----| 
E|--0--0--0--0------| 
D|-6--6--4--4----2~-| 
A|---------------0~-| 
E|------------------| 
 
Outro: (You look so wonderful in your dress) 
e|---------------------------------------------------| 
B|---------0-----------0-------------0-------------0-| 
E|-----0-----------0-------------0-------------0-----| 
D|---2---2-------4---4---------2---2---------2---2---| x2 
A|---------------------------0-------------0---------| 
E|-0-----------2-------------------------------------| 
 
e|-------------------------------| 
B|---------0-----------0---------| 
E|-----0-----------0-------------| 
D|---2---2-------4---4-------2~--|  
A|---------------------------0~--| 
E|-0-----------2-----------------|
 
 
Свернуть Распечатать

Видео