Ed Sheeran - Photograph, аккорды

Прокрутка
Тональность
Шрифт
100
Соло:
E|---0---0----------0---0-----------------------------|
B|-----4---0----------4---0---------------------------|
E|-------------5-------------5------------------------|
D|----------------------------------------------------|
A|----------------------------------------------------|
E|-0-----0---0----0-----0---0-------------------------|

E|---0---0----------0---0-----------------------------|
B|-----4---0----------4---0---------------------------|
E|-------------5-------------5------------------------|
D|----------------------------------------------------|
A|-4-----4---4----4-----4---4-------------------------|
E|----------------------------------------------------|

E|---0---0----------0---0-----------------------------|
B|-----4---0----------4---0---------------------------|
E|-------------5-------------5------------------------|
D|----------------------------------------------------|
A|-2-----2---2----2-----2---2-------------------------|
E|----------------------------------------------------|

E|---0---0--------0-----------------------------------|
B|-----4---0------0-----------------------------------|
E|-------------5--0-----------------------------------|
D|----------------------------------------------------|
A|-0-----0---0----0-----------------------------------|
E|----------------------------------------------------|

Аккорды в песне: E C#m B4 A9

Первый куплет:
            E
Loving can hurt
            C#m
Loving can hurt sometimes
             B4                   A9
But it's the only thing that I know

              E
When it gets hard
                     C#m
You know it can get hard sometimes
          B4
It is the only thing that 
                A9
Makes us feel alive

Переход:
C#m                           A9
We keep this love in a photograph
E                         B4
We made these memories for ourselves
          C#m
Where our eyes are never closing
     A9
Our hearts were never broken
     E                      B4
And time's forever frozen still

Припев:
            E
So you can keep me inside the pocket
         B4
Of your ripped jeans
                           C#m
Holding me close until our eyes meet
                    A9
You won't ever be alone
                     (passagem)
Wait for me to come home

Переход:
E|---0---0----------0---0-----------------------------|
B|-----4---0----------4-------------------------------|
E|-------------5--------------------------------------|
D|----------------------------------------------------|
A|----------------------------------------------------|
E|-0-----0---0----0-----0-----------------------------|

Вторая часть:
            E
Loving can heal
            C#m
Loving can mend your soul
             B4                  A9
And it's the only thing that I know
                    E
I swear it will get easier
                          C#m
Remember that with every piece of ya
             B4
And it's the only thing we take 
                 A9
With us when we die

Переход:
C#m                           A9
We keep this love in a photograph
E                         B4
We made these memories for ourselves
          C#m
Where our eyes are never closing
     A9
Our hearts were never broken
 E                      B4
Time's forever frozen still

Припев:
            E
So you can keep me inside the pocket
         B4
Of your ripped jeans
                           C#m
Holding me close until our eyes meet
                    A9
You won't ever be alone
            E
And if you hurt me that's okay baby
      B4
Only words bleed
                             C#m
Inside these pages you just hold me
                          A9
And I won't ever let you go

Terceira Parte:
                     C#m
Wait for me to come home
                     A9
Wait for me to come home
                     E
Wait for me to come home
                     B4
Wait for me to come home

Припев:
              E
So you could fit me

Inside the necklace you got
               B4
When you were sixteen

Next to your heartbeat 
          C#m
Where I should be
                          A9
Keep it deep within your soul

            E
And if you hurt me

Well, that's okay baby
       B4
Only words bleed
                             C#m
Inside these pages you just hold me
                          A9
And I won't ever let you go

Концовка:
           E
When I'm away
                         B4
I will remember how you kissed me
                           C#m
Under the lamppost back on 6th street
                                  A9
Hearing you whisper through the phone

Wait for me to come home
 
 
Свернуть Распечатать

Аппликатуры аккордов

Аккорд EАккорд C#mАккорд B4Аккорд A9
kazeev200031kazeev200031
автор подбора аккордов
8,884 3 03.03.2018

Видео