Зачем удалили Цоя?
Отвечаем в отдельной теме

Егор и Опизденевшие - Свобода, аккорды

Прокрутка
Тональность
Шрифт
100
Вступление: Bm x2
  G(III)       F#       Bm     A
Как платил Незнайка за свои вопросы
  G(III)       A(V)            D(V)
Что скрывал последний злой патрон
  Em       F#       Bm         A
И чему посмеивался Санька Матросов
  Em            Bm           G(III)       F#
Перед тем как шишел-мышел, пёрнул, вышел вон?

[Припев]:
 Bm              A
Это знает моя свобода
 D(V)            Bm
Это знает моя свобода
 G(III)   A(V)   D(V)
Это знает моё поражение
 Em       F#     Bm
Это знает моё торжество
 G(III)   A(V)   D(V)
Это знает моё поражение
 Em       F#     Bm
Это знает моё торжество

  G(III)       F#       Bm     A
Как бежал за Солнышком слепой Ивашка
  G(III)       A(V)     D(V)
Как садился ангел на плечо
  Em           F#       Bm        A
Как рвалась и плавилась последняя рубашка
  Em           Bm       G(III)       F#
Как и что обрёл, обнял летящий Башлачёв?

[Припев]:
 Bm              A
Это знает моя свобода
 D(V)            Bm
Это знает моя свобода
 G(III)   A(V)   D(V)
Это знает моё поражение
 Em       F#     Bm
Это знает моё торжество
 G(III)   A(V)   D(V)
Это знает моё поражение
 Em       F#     Bm
Это знает моё торжество

Соло:
G(III)      F#      Bm     A  G(III)  A(V)   D(V)    Em      F#    Bm     A   Em      F#     Bm

E|----------------------------10-9-7------------------------------------------10-9-7------------------|
B|----------3-2-0------5-------------8-7-5-------------------3-2-0------5------------8-7-5------------|
G|-------4----------------6-7--------------7-6-------------4--------------6-7--------------3---4------|
D|-2-4-5-----------5-4-------------------------7-----2-4-5----------5-4----------------------4--------|
A|----------------------------------------------------------------------------------------------------|
E|----------------------------------------------------------------------------------------------------|


  G(III)       F#       Bm     A
Партизан спалил в пизду родную хату
  G(III)       A(V)     D(V)
Завязался в узел ремешок
  Em           F#       Bm     A
Эх, распирает изнутри весёлую гранату
  Em           Bm       G(III)       F#
Так чем всегда кончается вот такой стишок?

[Припев]:
 Bm              A
Это знает моя свобода
 D(V)            Bm
Это знает моя свобода
 G(III)   A(V)   D(V)
Это знает моё поражение
 Em       F#     Bm
Это знает моё торжество
 G(III)   A(V)   D(V)
Это знает моё поражение
 Em       F#     Bm
Это знает моё торжество


Бас

Вступление:
G|-------------------------------|
D|---4------4------4------4------|
A|-2---2--2---2--2---2--2---2----|
E|-------------------------------|

Куплеты:
G|-----------------------------------------------------------|
D|-----------------4------2--------------------9------9------|
A|---5------4----2---2--0---0----5------9----7---7--7---7----|
E|-3---3--2---2----------------3---3--7---7------------------|

G|-----------------------------------------------------------|
D|-----------------4------2-------------4--------------------|
A|---2------4----2---2--0---0----2----2---2----5-------------|
E|-0---0--2---2----------------0---0---------3---3-----------|

[Припев]:
G|-----------------------------------------------------------|
D|---4------2------7------4------------------------7---------|
A|-2---2--0---0--5---5--2---2---------------5-5--5---5-------|
E|----------------------------3-3--3-5-5--5------------------|

G|-----------------------------------------------------------------------------------------------|   
D|-------------------4-----------------------------------------------4------4------4------4------|
A|---------------2-2---2-----------------5-5-5-5-----------------2-2---2--2---2--2---2--2---2----|
E|-0-0--0-2-2--2---------3-3-3-3-5-5-5-5---------0-0-0-0-2-2-2-2---------------------------------| 
 
 
Свернуть Распечатать

Аппликатуры аккордов

Аккорд BmАккорд G(III)Аккорд F#Аккорд AАккорд A(V)Аккорд D(V)Аккорд Em
помощники
1,394 10 12.01.2022

Видео